Loading

ŧ ͨҧ

ѾŴԻŧس ͧ/ µǤسͧ ѹ
ҧ÷ͺкҡͼԴҴ س駷
ͨҧ
Artist : ʡ
Album : 7 ԧ

Intro : D Em C G ( 2 times ) Gsus4/G

D C G
ͨҧ ù觫. . ѹ
D C G
ͨҧ 㨢ͧ. . .ѹǧ
D C D G Gsus4/G
֧. . .ͧ. . .СѺ׹

D C G
ͨҧ 㨷. . .ѹ纪
D C G
ͨҧ ҷء¤. . .
D C D G
ѹᷧ. . .ᴧ. . .鹴

C D G
* Һ͡ҩѹ. . .
C D Em
Һ͡. . .ҡѹ ѹ
C D Bm Em
Ӻһӡ. .ѹ
A C D Em G
. .㨴ǧ ѹѡ

Instru : D C G ( 2 times )
D C / D G G

( * )

D C G
ͨҧ . . .ѹҡ
D C G
ͨ ѹ˴. . .͢Ҵ
D C G
͹Ҵ Ҵǧ Ҵѹ
D C / D G
Ҵʧѹ ѹ


ǹŴ Full Song
*424243169286584
*424243169286584
ǹŴ Truetone
*424218169286584
*424218169286584
*424218169286584
* ѵҤҺԡôǹŴ Fullsong, Truetone, Poly, Mono : 35 ҷ/ŧ
ŧ͹
ѹʵ : 11 ..2546,02:33.
ӹǹ : 396747 / ʴԴ : 44
ʵ


ҡ: NV pooh
Guest
ŧй
ŧԵ
͡ʴ੾ :

  • NV pooh
    Guest
  • 12 ..2546,06:05.
    ŧŧشͨҡŧѹҡ Ѻ ŧ觹 ͡ҡ͹˹ҹ
    
    ǡҷͺ蹡յҨж١㨡ѹŧյǵ Ҵ㹷͹Solo ѧԸռǻҡ

    ٻǡ Ѻѹʺ ١蹹Դ֧çIntro Ѻҧͧͧ մմáѺõ
    ͡յ¡͹ҧ֡ẺѴ¡"¡" ¹¡ԧ..5555

    ¹TabŧҺҧСѹ ¹ ѧҡԹ ѧѴ ǹ㹿ѹͧ ҡ

    зáҡ෻еӡҹ1/2§ 觡礧ٵͧǧҧº͡

    ŧ֡§͹෻ ͧդѺ
    ѹ͹Ԥ㹷 繤سʡ յ12¤Ѻ 觿ѧǤҴҵ͹ѴԧͧѴ 礧12͹ѹ
    ෤ԤѴѺǪ´ (෤Ԥź͹ ɳŧ)
    ѧ෻ԧŧ Ҩ֧֡§蹻֡

    ѡɳ§ͧյ12 ͨҧ¤ ·¤3-6·բҴҧѹ§굵ǡѹҧѹ1͵൷(12ͧյ)
    ͧѧ͹IntroԹ§ҹѺ
    ͡ҡѧ㹷͹ͧ෻ԧ ͹Ѻ蹡յ2ա 蹡յ §ǧҹԴ֧Ѻ


  • Guest
  • 19 ..2546,21:35.
    ѡѺ ҡŧѧ            
  • tae
    Guest
  • 21 ..2546,00:41.
      ǺмǢͧ
  • ͿҪ
    Guest
  • 15 ..2547,11:00.
    èк͡
  • طûҡ
    Guest
  • 1 ..2547,17:26.
    ҡ Tab intro  Ѻ  
  • miti
    Guest
  • 14 ..2547,06:16.
    ҧҨѴ  
  • Ե
    Guest
  • 15 ..2547,04:08.
    Intro:ҹ ŧ餹ѧ 

    D
    ------------------------2---2---2--2-----2---2----2-------------------0--0--0-------------------------------------------
    --T--------------------3---3---3--3-----3---3----3-------------------0--0--0---3------3----0---------------5---5----
    --A--------------------2---2---2--2-----2---2----2-------------------0--0--0------------------------------5------------
    --B--------------------0---0----------------------------------0h2------------------0h2--0---------------------7---7-----
    ------------------2-----0--------------------------------0h2----------------------------------------0h2---3---------------
    -------0----3----------------------------------------------------------0------------------------------------------------------

    D Em7
    ---------------------------------3---3---------------2---2---2--2---2--2--2------------------------------3---3---3---
    ---------------3----------------0---0---------------3---3---3--3---3--3--3-----------------------------------3---3---
    ---------------------------------0---0---------------2---2---2--2---2--2--2-------------------------4---4---4---4---
    --0--2h0--------------------------------------------0---0-----------------------------0--------------------------------
    -------------------0h2--------------------------2---0--------------------------0h2--------2---------------------------
    -----------------------------3-----------0---3-----------------------------------------------------0----------------------

    C Dsus4 G Gsus4 G
    --------------------------------------3--3--3---------------2---2----------------3--3--2--3--3----3--3--3-----3------
    ---3-------3----0-------------------1--1--1---------------3---3----------------0--0--0--1--1----1--1--1-----0-----
    --------------------------------------0--0--0---------------2---2----------------0--0--0--0--0----1--1--1-----0------
    ---0h2---0---------------------2---------------0h2--0------------------------------------------------------------0------
    ---------------------0h2----3---------------------------------------0h2--------------------------------------------2-----
    --------------------------------------------------------------------------------3--------------------------------------3------

    ء ѧСôմѧҡͧԧ


  • طûҡ
    Guest
  • 15 ..2547,21:53.
    ͺسҡѺѺ Tab intro
  • miti
    Guest
  • 16 ..2547,21:15.
    ա͹ʹ ٳʹ  
  • The thai.Gr
    Guest
  • 6 ..2547,19:23.
    Thank Ե yor are good my friends
  • Somelove Society
    Guest
  • 13 ..2547,22:51.
    㨧Ѻ ͸Ժ˹ФѺ
  • art
    Guest
  • 5 ..2548,16:44.
    ҡTap ŧͧҷسҹФѺ
    artsex@thaimail.com ͺسǧ˹ҤѺ (Ẻ´¹ФѺ)
    ((յ))
  • .ѧСo
    Guest
  • 15 ..2549,11:58.
     
  • .. 4/3
    Guest
  • 27 ..2549,20:49.
     tab ٧¡ҹ
  • ǡ ʡ
    Guest
  • 7 ..2549,15:24.
    ա͹֧¤Ѻ ͹ Em ͹ѧ͹ Hook

  • Guest
  • 18 ..2549,13:12.
     ҧ        D
    ------------------------2---2---2--2-----2---2----2-------------------0--0--0-------------------------------------------
    繷͹ ŧ ѧѧ䧡ѧ㨤 µͺ˹Фѹѧ䧤 ҵ駡 14 ǤШ͹ 19 Ǥ ѧ դ͹ ѧ䧡سҪµͺ˹¹Фѹѧ ͺسǧ˹Ҥ
  • fff
    Guest
  • 17 ..2549,16:09.
    ͨҧ 
    Artist :


    ͨҧ
    Artist : ʡ
    Album : 7 ԧ

    Intro : D Em C G ( 2 times ) Gsus4/G

    D C G
    ͨҧ ù觫. . ѹ
    D C G
    ͨҧ 㨢ͧ. . .ѹǧ
    D C D G Gsus4/G
    ֧. . .ͧ. . .СѺ׹

    D C G
    ͨҧ 㨷. . .ѹ纪
    D C G
    ͨҧ ҷء¤. . .
    D C D G
    ѹᷧ. . .ᴧ. . .鹴

    C D G
    * Һ͡ҩѹ. . .
    C D Em
    Һ͡. . .ҡѹ ѹ
    C D Bm Em
    Ӻһӡ. .ѹ
    A C D Em G
    . .㨴ǧ ѹѡ

    Instru : D C G ( 2 times )
    D C / D G G

    ( * )

    D C G
    ͨҧ . . .ѹҡ
    D C G
    ͨ ѹ˴. . .͢Ҵ
    D C G
    ͹Ҵ Ҵǧ Ҵѹ
    D C / D G
    Ҵʧѹ ѹ



  • ŧ
    Guest
  • 14 ..2549,15:43.
         Intro 繤   
  • pin14260
    Guest
  • 5 ..2549,07:18.
     Ţ 6 ÷Ѵ  ÷Ѵš 1 ǵŢ ͪͧ Ѻ  ( )
  • love ǧ͡
    Guest
  • 6 ..2549,14:53.
    ͨҧ
    Artist : ʡ
    Album : 7 ԧ

    Intro : D Em C G ( 2 times ) Gsus4/G

    D C G
    ͨҧ ù觫. . ѹ
    D C G
    ͨҧ 㨢ͧ. . .ѹǧ
    D C D G Gsus4/G
    ֧. . .ͧ. . .СѺ׹

    D C G
    ͨҧ 㨷. . .ѹ纪
    D C G
    ͨҧ ҷء¤. . .
    D C D G
    ѹᷧ. . .ᴧ. . .鹴

    C D G
    * Һ͡ҩѹ. . .
    C D Em
    Һ͡. . .ҡѹ ѹ
    C D Bm Em
    Ӻһӡ. .ѹ
    A C D Em G
    . .㨴ǧ ѹѡ

    Instru : D C G ( 2 times )
    D C / D G G

    ( * )

    D C G
    ͨҧ . . .ѹҡ
    D C G
    ͨ ѹ˴. . .͢Ҵ
    D C G
    ͹Ҵ Ҵǧ Ҵѹ
    D C / D G
    Ҵʧѹ ѹ
  • mechanical/swu
    Guest
  • 6 ..2549,15:06.
    شʹ
  • pp
    Guest
  • 6 ..2549,15:09.
     
    ͨҧ
    Artist : ʡ
    Album : 7 ԧ

    Intro : D Em C G ( 2 times ) Gsus4/G

    D C G
    ͨҧ ù觫. . ѹ
    D C G
    ͨҧ 㨢ͧ. . .ѹǧ
    D C D G Gsus4/G
    ֧. . .ͧ. . .СѺ׹

    D C G
    ͨҧ 㨷. . .ѹ纪
    D C G
    ͨҧ ҷء¤. . .
    D C D G
    ѹᷧ. . .ᴧ. . .鹴

    C D G
    * Һ͡ҩѹ. . .
    C D Em
    Һ͡. . .ҡѹ ѹ
    C D Bm Em
    Ӻһӡ. .ѹ
    A C D Em G
    . .㨴ǧ ѹѡ

    Instru : D C G ( 2 times )
    D C / D G G

    ( * )

    D C G
    ͨҧ . . .ѹҡ
    D C G
    ͨ ѹ˴. . .͢Ҵ
    D C G
    ͹Ҵ Ҵǧ Ҵѹ
    D C / D G
    Ҵʧѹ ѹ

    D
    ------------------------2---2---2--2-----2---2----2-------------------0--0--0-------------------------------------------
    --T--------------------3---3---3--3-----3---3----3-------------------0--0--0---3------3----0---------------5---5----
    --A--------------------2---2---2--2-----2---2----2-------------------0--0--0------------------------------5------------
    --B--------------------0---0----------------------------------0h2------------------0h2--0---------------------7---7-----
    ------------------2-----0--------------------------------0h2----------------------------------------0h2---3---------------
    -------0----3----------------------------------------------------------0------------------------------------------------------

    D Em7
    ---------------------------------3---3---------------2---2---2--2---2--2--2------------------------------3---3---3---
    ---------------3----------------0---0---------------3---3---3--3---3--3--3-----------------------------------3---3---
    ---------------------------------0---0---------------2---2---2--2---2--2--2-------------------------4---4---4---4---
    --0--2h0--------------------------------------------0---0-----------------------------0--------------------------------
    -------------------0h2--------------------------2---0--------------------------0h2--------2---------------------------
    -----------------------------3-----------0---3-----------------------------------------------------0----------------------

    C Dsus4 G Gsus4 G
    --------------------------------------3--3--3---------------2---2----------------3--3--2--3--3----3--3--3-----3------
    ---3-------3----0-------------------1--1--1---------------3---3----------------0--0--0--1--1----1--1--1-----0-----
    --------------------------------------0--0--0---------------2---2----------------0--0--0--0--0----1--1--1-----0------
    ---0h2---0---------------------2---------------0h2--0------------------------------------------------------------0------
    ---------------------0h2----3---------------------------------------0h2--------------------------------------------2-----
    --------------------------------------------------------------------------------3--------------------------------------3------

  • ǧ
    Guest
  • 24 ..2550,18:33.
    ǧ 㹰ҹ ͷشǧͺФسҡТͺسҡѺ ¾ ҹ
  • Ӿ ྪúóѺ
    Guest
  • 20 ..2550,11:00.
    ʡ繹ѡͧⴹ㨼ҡ¤Ѻ
  • .
    Guest
  • 15 ..2550,09:38.
    ͺ㨡Ѻ⹵ ҡ硪 Ҫ
  • ͵յ͡
    Guest
  • 9 ..2550,10:25.
    á º͡˹ 0h2 ѹ
    ((յ))
  • hhh
    Guest
  • 3 ..2550,01:59.
    ͨҧ
    Artist : ʡ
    Album : 7 ԧ

    Intro : D Em C G ( 2 times ) Gsus4/G

    D C G
    ͨҧ ù觫. . ѹ
    D C G
    ͨҧ 㨢ͧ. . .ѹǧ
    D C D G Gsus4/G
    ֧. . .ͧ. . .СѺ׹

    D C G
    ͨҧ 㨷. . .ѹ纪
    D C G
    ͨҧ ҷء¤. . .
    D C D G
    ѹᷧ. . .ᴧ. . .鹴

    C D G
    * Һ͡ҩѹ. . .
    C D Em
    Һ͡. . .ҡѹ ѹ
    C D Bm Em
    Ӻһӡ. .ѹ
    A C D Em G
    . .㨴ǧ ѹѡ

    Instru : D C G ( 2 times )
    D C / D G G

    ( * )

    D C G
    ͨҧ . . .ѹҡ
    D C G
    ͨ ѹ˴. . .͢Ҵ
    D C G
    ͹Ҵ Ҵǧ Ҵѹ
    D C / D G
    Ҵʧѹ ѹ

  • Guest
  • 22 ..2550,12:27.
    Ҷ֧ҡ¤Ѻ ѡʡ
  • DK 9
    Guest
  • 14 ..2551,11:53.
    ŧ ¢Ǵ˹ ҢǾ ٺӪͧ˹
  • DK
    Guest
  • 14 ..2551,11:56.
    ŧ ¢Ǵ˹ ҢǾ ٺӪͧ˹
    ҡ DK ѡ DK 觧

ԭʴԴ繤Ѻ

ԡٻ áٻŧ㹢ͤ
  • Member :
    username
    password
  • Not a member :
    name
    email