Loading

เนื้อเพลง ฝืน

นิก The Star 2

อัพโหลดคลิปเพลงนี้ที่คุณ ร้อง/เล่น ด้วยตัวคุณเอง ได้แล้ววันนี้
ระหว่างการทดสอบระบบหากพบข้อผิดพลาด กรุณาแจ้งที่นี่
ฝืน นิก รณวีร์ (The star 2) 

จบกันตรงนี้ ดีกว่า อย่ามาแกล้งฝืนทำเป็นยังรัก
จากกันตรงนี้แล้วเริ่มใหม่ ชีวิตของเรานั้นไม่เหมือนกัน

*ลืมทุกอย่างความรักที่ฉันมี
ลืมทุกสิ่ง สิ่งที่ฉันให้กับเธอ
ต้องยอมรับเสียที ต่อจากนี้ไม่มีเธอ

**อย่ามาทนมาฝืนกันอีก
ไม่ขอได้ยินคำว่าเสียใจ
(ก็)จากกันด้วยดีดีกว่า
ฉันรู้ไม่ได้มีแค่ฉันคนเดียวที่รักเธอ

หากเธอจะรัก คนอื่น อย่ามาแกล้งฝืนทำดีกับฉัน
อย่ากลัวว่าฉันจะร้องไห้
เรื่องนี้น้ำตามันไม่สำคัญ

ซ้ำ * , **

solo

ซ้ำ **

จากกันด้วยดีดีกว่า
ฉันรู้ไม่ได้มีแค่ฉันคนเดียวที่รักเธอ
ส่งเพลงนี้ให้เพื่อน
วันที่โพสต์ : 7 ต.ค.2549,19:55น. 124.157.174.39
จำนวนผู้ชม : 127882 คน / แสดงความคิดเห็น : 69 ครั้ง
โพสต์โดย


จาก: loveloveaon
เข้าร่วม: 8 ปีก่อน
เพลง: 11
โพสต์: 110
เพลงแนะนำ
เพลงฮิต
เลือกแสดงเฉพาะ :

  • 145
    Guest
  • 8 ต.ค.2549,00:36น.
    ชอบงะ
    ((ขอคอร์ดกีต้าร์))
  • เด็ดใหม่...คร้าบบบ
    Guest
  • 8 ต.ค.2549,17:01น.
    ขอเว็บที่โหลดเพลงหน่อยสิคับ   ถ้าใจดีก้อช่วยหน่อยนะคับ
    และขอคอร์ดกับแท็บด้วยนะคับ
    ((ขอคอร์ดกีต้าร์))
  • Doalla
    Guest
  • 8 ต.ค.2549,17:07น.
    พี่นิกออกอัลบั้มใหม่แล้วเหรอ
    ไม่รู้เรื่องเลยอะ
    อยากฟังคับ
    ((ขอคอร์ดกีต้าร์))
  • ...
    Guest
  • 10 ต.ค.2549,00:04น.
    เพราะๆ
  • แอม........วง stupid
    Guest
  • 10 ต.ค.2549,18:09น.
    เพราะมากเลยอะ

    จะร้องไห้เลย ซึ้งโดนใจ เด็กสารคาม

    ของให้เพลงนี้ดังพลุแตกน่ะ


    ทำนองเพลงทำได้เยี่ยมเลยอะ
  • แอ๊ด ........ วง Stupid ผดุงนารี
    Guest
  • 10 ต.ค.2549,18:13น.
    ใครมีคอร์ตเพลงนี้บ้างอะ


    รบกวนหาให้ที แท็ป ด้วยน่ะ จะเอาไปประกวด งานปีใหม่


    น่ะครับ ขอที ใครก้อได้เอาเเบบ 100 % น่ะ
  • I nEED some Body
    Guest
  • 11 ต.ค.2549,21:39น.
    -*-
  • 9
    Guest
  • 11 ต.ค.2549,23:52น.
    อ่อ้ออ้อ่อ่อ่อ่อ่อ่อ่  
    ((ขอคอร์ดกีต้าร์))
  • B2J
    Guest
  • 12 ต.ค.2549,07:08น.
    เพลง   :  ฝืน 
    ศิลปิน : นิก The Star 2

    Gmaj7/G D Em Dsus4/D
    จบกันตรงนี้ ดีกว่า อย่ามาแกล้งฝืนทำเป็นยังรัก
    Gmaj7 D Em7 A Asus4/A
    จากกันตรงนี้แล้วเริ่มใหม่ ชีวิตของเรานั้นไม่เหมือนกัน
    Em7 D Em7
    *ลืมทุกอย่างความรักที่ฉันมี
    D Em7
    ลืมทุกสิ่ง สิ่งที่ฉันให้กับเธอ
    F#m G A
    ต้องยอมรับเสียที ต่อจากนี้ ไม่มีเธอ
    D Em
    **อย่ามาทนมาฝืนกันอีก
    F#m G /A
    ไม่ขอได้ยินคำว่าเสียใจ
    D
    (ก็)จากกันด้วยดีดีกว่า
    Em F#M G
    ฉันรู้ไม่ได้มีแค่ฉันคนเดียวที่รักเธอ


    G D Em D
    หากเธอจะรัก คนอื่น อย่ามาแกล้งฝืนทำดีกับฉัน
    G D
    อย่ากลัวว่าฉันจะร้องไห้
    Em A
    เรื่องนี้น้ำตามันไม่สำคัญ

    ซ้ำ * , **

    solo G/F#m/G/D/G/F#m/A

    ซ้ำ **
    D
    จากกันด้วยดีดีกว่า
    Em F#m G
    ฉันรู้ไม่ได้มีแค่ฉันคนเดียวที่รักเธอ

    A
    จบกันตรงนี้ดีกว่า


    ผมมั่วนะๆ ถ้าผิดขออภัย
  • Eki
    Guest
  • 13 ต.ค.2549,00:48น.
    เพราะมากเลยครับ น่าฟังมาก
  • Yutty
    Guest
  • 13 ต.ค.2549,19:42น.
    ฝืน  นิก   รณวีร์
    G D Em D
    จบกันตรงนี้ดีกว่า อย่ามาแกล้งฝืนทำเป็นยังรัก
    G D Em A Asus2
    จากกันตรงนี้แล้วเริ่มใหม่ ชีวิตของเรานั้นไม่เหมือนกัน
    Em D Em D
    * ลืมทุกอย่างความรักที่ฉันมี ลืมทุกสิ่งสิ่งที่ฉันให้กับเธอ
    Em F#m G A
    ต้องยอมรับเสียที ต่อจากนี้ไม่มีเธอ
    D Em F#m G / A
    ** อย่ามาทนมาฝืนกันอีก ไม่ขอได้ยินคำ ว่าเสียใจ
    D Em F#m G ( D)
    จากกันด้วยดีดีกว่า ฉันรู้ไม่ได้มีแค่ฉันคนเดียวที่รักเธอ

    G D Em D
    หากเธอจะรักคนอื่น อย่ามาแกล้งฝืนทำดีกับฉัน
    G D Em A Asus2
    อย่ากลัวว่าฉัน จะร้องไห้ เรื่องนี้น้ำตามันไม่สำคัญ

    ( * . ** )
    solo ; / F#m / G / A / D / / F#m / G / A / D / ( ** )

    D Em F#m G / A
    เฮ้อ......เฮอ.....น่า..นา...น้า...น่า......นา....น้า.......เฮ้อ..........
    D Em F#m G
    จากกันด้วยดีดีกว่า ฉันรู้ไม่ได้มีแค่ฉันคนเดียวที่รักเทอ
    Bm
    จบกันตรงนี้ดีกว่า
  • *-*
    Guest
  • 15 ต.ค.2549,02:14น.
    ใครอยากได้เพงนี้แอ๊ดมานะงับเด๋วส่งให้งับ chip_setuphotmail.com
  • ZR............HTH
    Guest
  • 15 ต.ค.2549,22:30น.
    จะมีใครบ้างละที่เขามองกันที่ใจ ไม่ใช่ดูหน้าตา
    แล้วใครสักกี่คนที่เขาจะมารักคนที่ไม่หล่อ ไม่เท่ บ้างล่ะ
    สำหรับตัวเราเองที่หน้าตาไม่หล่อ ไม่เท่
    ทำไงได้ เกิดมาครั้งเดียว ...........อยากเจอคนที่เขาจิงใจ ไม่ได้มองเราอย่างงั้น

    ก้อได้แค่แอบมองตลอด ไม่กล้าทัก เพราะเราไม่คู่ควรกับเทอ
    เจียมตัวอยุ่ตลอดเวลา

    ได้แค่นี้ก้อดีแล้วอะนะ

  • aot......stupid....
    Guest
  • 15 ต.ค.2549,22:35น.
    1----------------------------------------------------------------------------------------------
    2------14----15------14---15-----14---15-----14---15----------15^15^-----15-15-15----
    3---14---14-------14---14-----14---14-----14---14--------------------------------------------
    4------------------------------------------------------------------------------------------------
    5-----------------------------------------------------------------------------------------------
    6---------------------------------------------------------------------------------------------


    1-----------------------------------------------------------------------------------------
    214-15--12-14---10-128-107-8--5-7-3----33^---------------------
    3---------------------------------------------------------4-------------------------------
    4----------------------------------------------------------------------------------------
    5-------------------------------------------------------------------------------------
    6-----------------------------------------------------------------------------------


    1-------------------------------------------------------------------------------------------------------------
    2------14----15------14---15-----14---15-----14---15----------------------------------------------------
    3---14---14-------14---14-----14---14-----14---14---------------6-6-7-7---6-6-7-7--6-6-7-79<--
    4----------------------------------------------------------------------------------------------------------------
    5-----------------------------------------------------------------------------------------------------------
    6---------------------------------------------------------------------------------------------------------------


    1-----------------------------------------------------------------------------------------------------
    2-------------------------------------------------------------------------------------------------------
    3-----------9-9------9-9------9-9-------7>9>11<9>7>9<7----------------------------------
    4-----7-7--------7-7-----77-------7-7-------------------------------------------------------------
    5----------------------------------------------------------------------------------------------------------
    6----------------------------------------------------------------------------------------------------





    ไปลองฟิวล์ดูเองน่ะ

    น่าจะเหมือนอยุ่นะ

    จบกันตรงนี้เถอะน่ะ...........( คนที่เขามารักเรา ) ......
    ฉันก้อยังไม่พร้อมหรอกเธอ......
    หัวใจของฉันตอนนี้มีใครคนหนึ่งแล้ว
    ไม่สามารถที่จะไปรักใครอื่นได้

    555555555555555555555555

  • gwa2005
    Guest
  • 15 ต.ค.2549,22:37น.
    ชอบมาก...ๆๆๆๆๆๆๆๆๆๆๆๆๆๆๆ
    ขอบคุณน่ะ......


    แต้งๆๆๆๆๆ

  • เเม๊ก
    Guest
  • 15 ต.ค.2549,22:40น.
    หาก Z...จะรัก คนอื่น อย่ามาแกล้งฝืนทำดีกับฉัน
    อย่ากลัวว่าฉันจะร้องไห้
    เรื่องนี้น้ำตามันไม่สำคัญ

    ชอบเพลงนี้จังเลยอะ


  • เเม๊ก
    Guest
  • 15 ต.ค.2549,22:40น.
    หาก Z...จะรัก คนอื่น อย่ามาแกล้งฝืนทำดีกับฉัน
    อย่ากลัวว่าฉันจะร้องไห้
    เรื่องนี้น้ำตามันไม่สำคัญ

    ชอบเพลงนี้จังเลยอะ


  • satapon........pn
    Guest
  • 15 ต.ค.2549,22:46น.
    ขอให้เพลงนี้ ดังๆๆๆๆๆๆๆน่ะครับพี่นิก

    เพราะมากๆๆๆเลย

    เพิ่งรู้อะว่าพี่ออกอัลบั้มใหม่

    พ่อพี่บอกให้ฟังเพลงประกอบละครอะ

    เรื่อง..........................


    ใครทายถูกว่าใครร้อง แก จะให้เกรด 4 อะ
    อิอิอิอิอิอิอิอิอิ
    แกคงพูดงั้นๆๆๆล่ะมั้ง เน้าะ

    เพลงนี้เพราะมากเลยอะ

  • cfc_
    Guest
  • 15 ต.ค.2549,22:50น.
    เมื่อไหร่.........MV    เพลงนี้จะเปิดตัวอะ

    O.IC ยังไม่เหงมีเลย

    เซียนโอเก๊ะ ก้อยังไม่มาเลย

    จะมาตอนไหนน้า



    ถ้าเปิดตัวออกมา คงดังพลุแตกเลยน้า
  • qq
    Guest
  • 15 ต.ค.2549,22:55น.
    เพลงนี้เพราดีอะ  ไดฟังแล้ว


    ชอบมากๆๆๆๆๆ
  • adda410
    Guest
  • 15 ต.ค.2549,23:08น.
    1----------------------------------------------------------------------------------------------
    2------14----15------14---15-----14---15-----14---15----------15^15^-----15-15-15----
    3---14---14-------14---14-----14---14-----14---14--------------------------------------------
    4------------------------------------------------------------------------------------------------
    5-----------------------------------------------------------------------------------------------
    6---------------------------------------------------------------------------------------------


    1-----------------------------------------------------------------------------------------
    214-15--12-14---10-128-107-8--5-7-3----33^---------------------
    3---------------------------------------------------------4-------------------------------
    4----------------------------------------------------------------------------------------
    5-------------------------------------------------------------------------------------
    6-----------------------------------------------------------------------------------


    1-------------------------------------------------------------------------------------------------------------
    2------14----15------14---15-----14---15-----14---15----------------------------------------------------
    3---14---14-------14---14-----14---14-----14---14---------------6-6-7-7---6-6-7-7--6-6-7-79<--
    4----------------------------------------------------------------------------------------------------------------
    5---------------------------------------------------------------------------------------------------------------
    6---------------------------------------------------------------------------------------------------------------


    1-----------------------------------------------------------------------------------------------------
    2-------------------------------------------------------------------------------------------------------
    3-----------9-9------9-9------9-9-------7>9>11<9>7>9<7----------------------------------
    4-----7-7--------7-7-----77-------7-7-------------------------------------------------------------
    5----------------------------------------------------------------------------------------------------------
    6----------------------------------------------------------------------------------------------------


    แอ๊ด วง stupid pnม.410

  • nating_hardcore
    Guest
  • 16 ต.ค.2549,03:33น.
    มีmp3เพลงนี้ไหม... 
    ((ขอคอร์ดกีต้าร์))
  • POO
    Guest
  • 18 ต.ค.2549,15:33น.
    งะ เว็บที่แต่ละคนให้เข้าไปแล้ว สมัครมาชิกก็มะได้

    ไม่ปลื้มเลยอะ

    จะหาฟังได้ปะ

    ถ้ามีบอกด้วยนะ/จบ
    ((ขอคอร์ดกีต้าร์))
  • N[a]N
    Guest
  • 19 ต.ค.2549,04:00น.
    เพลง นี้เเพราะใช่ไหม

    จาก พี่นิก ของพวกเรา NICK FC

    ติดตามผลงาน พี่นิก เจ้าหมูตุ๋นได้ที่

    www.nickclub.com

    ลองคลิกไปดูนะค่ะ
  • loveloveaon
    Guest
  • 19 ต.ค.2549,18:28น.
    เป็น อัลบั้มรวมอ่ะครับ มี 4คน ชื่ออัลบั้ม Four หรือ Flow นี่ล่ะ
    มี4คน มี นิก แบงค์ แล้วก็อีก 2คน -*- จำไม่ได้ล่ะว่าใคร

ขอเชิญร่วมแสดงความคิดเห็นครับ

คลิกที่รูป เพื่อแทรกรูปลงในข้อความ
  • Member :
    username
    password
  • Not a member :
    name
    email