Loading

เพลง เป็นแฟนได้หม้าย

ฟื้น

อัพโหลดคลิปเพลงนี้ที่คุณ ร้อง/เล่น ด้วยตัวคุณเอง ได้แล้ววันนี้
ระหว่างการทดสอบระบบหากพบข้อผิดพลาด กรุณาแจ้งที่นี่
เพลง เป็นแฟนได้หม้าย
ศิลปิน ฟื้น

Intro/

ถามตรงตรง เปลี่ยนเพื่อนเป็นแฟนได้หม้าย
เพราะว่าหัวใจ ของฉันนั้นมีเธออยู่
อยากเจอะอยากคุยพบหน้า หวั่นไหวเมื่อได้จับมือ
เธอว่าพรือ จะรับรักฉันหม้าย

* จับมือฉันแล้วเดินก้าวไป ไปเราไปด้วยกัน
อย่าหวาดหวั่น ไม่ต้องกลัวสิ่งใด
ยอมรับฉันเป็นแฟนได้หม้าย เธอไม่ต้องอายใคร
เพราะว่าหัวใจ ผู้ชายคนนี้มันรักเธอ

คบกันมา มันก็นานพอแล้ว
เพื่อนก็แซว ว่าเรานั้นเป็นแฟนกัน
เมื่อเธอมีใจให้มา แล้วไซต้องปิดบังฉัน
บอกให้ฉันฟัง สักคำว่ารักได้ไหม

( * )
Solo/
( * )

เพราะหัวใจผู้ชายคนนี้... มัน รัก เธอ
ส่งเพลงนี้ให้เพื่อน
วันที่โพสต์ : 9 ธ.ค.2550,12:27น. 125.24.136.158
จำนวนผู้ชม : 37172 คน / แสดงความคิดเห็น : 19 ครั้ง
โพสต์โดย


จาก: โอเลี้ยง
เข้าร่วม: 7 ปีก่อน
เพลง: 0
โพสต์: 102
เพลงแนะนำ
เพลงฮิต
ผู้สนับสนุน
เลือกแสดงเฉพาะ :

  • คนใต้
    Guest
  • 9 ธ.ค.2550,18:45น. 117.47.182.229
    ขอคอร์ส หน่อย ครับ ((ขอคอร์ดกีต้าร์))
  • โอเลี้ยง
    Guest
  • 11 ธ.ค.2550,15:17น. 125.24.141.64
    C/Em/F/G
    แค่นี้ครับ
  • โอเลี้ยง
    Guest
  • 11 ธ.ค.2550,15:18น. 125.24.141.64
    C/Em/Am/F/G
    ลืมครับลืมๆ
  • น้อง...A
    Guest
  • 12 ธ.ค.2550,13:57น. 61.19.227.2
    ขอบคุณครับพี่นนท์
  • ด. พัทลุง
    Guest
  • 14 ธ.ค.2550,13:04น. 203.113.107.139
    นักร้องไม่ค่อยจะหล่อ แต่เสียงดีค่ะ จากเด็ก ว.ธ. นิ
  • นนท์-ปลายนา
    Guest
  • 21 ธ.ค.2550,16:00น. 61.19.227.2
    โอเลี้ยง ชอบเพลงเพื่อชีวิดมากมาย
  • ตั้มวงทุ่สง
    Guest
  • 28 ธ.ค.2550,15:41น. 203.113.71.169
    1 --------------------------5-------------------------------------------------------------------------
    2 -----------------5---8----------8-----5---------5--------------------------------------------------
    3 ----5----7---------------------------------7---------------------------------------------------------
    4 ----------------------------------------------------------------------------------------------------
    5 -----------------------------------------------------------------------------------------------------
    6 ----------------------------------------------------------------------------------------------------

    1-----------------------------------5-----8--7----5---------------------------------------------------
    2---------------------5------7-------------------------8-----5----------------------------------------
    3-----5-------7-------------------------------------------------------------------------------------
    4-------------------------------------------------------------------------------------------------
    5-------------------------------------------------------------------------------------------------
    6-------------------------------------------------------------------------------------------------


    -1---------------------------------------------------------------------------------------------
    -2----------5------------5---------------------------------------------------------------------
    -3----7--------7---5--------7----5----0-------5------4------------------------------------
    -4---------------------------------------------------------------------------------------------
    -5---------------------------------------------------------------------------------------------
    -6---------------------------------------------------------------------------------------------
1

ขอเชิญร่วมแสดงความคิดเห็นครับ

คลิกที่รูป เพื่อแทรกรูปลงในข้อความ
  • Member :
    username
    password
  • Not a member :
    name
    email