Loading

เพลง เพื่อนใจ

โลโซ

อัพโหลดคลิปเพลงนี้ที่คุณ ร้อง/เล่น ด้วยตัวคุณเอง ได้แล้ววันนี้
ระหว่างการทดสอบระบบหากพบข้อผิดพลาด กรุณาแจ้งที่นี่
Artist : Loso
Title : เพื่อนใจ


Intro : D/G/D/G A/D/G/D/A/

D F#m Bm G
หากวันนี้ ไม่มีเธอ ก็ไม่รู้ว่าฉัน จะเป็นเช่นไร
F#m Bm Em A
โลกใบนี้ ช่างเป็นใจ ที่ทำให้ฉันได้เจอกับเธอ

D F#m G A
* ร่วมมือกัน เพื่อสิ่งนั้นที่ยิ่งใหญ่ จะเป็นได้ถ้าเราช่วยกัน
D Bm Em A D
แค่มีเธอ แค่มีฉัน ก็เท่านั้น ฝันคงเป็นไป อย่างที่ใจอยากให้เป็น

Instru : D/G/D/A

D F#m Bm G
สุดขอบฟ้า ที่แสนไกล จะแห่งไหน ที่ใดถ้ามีเธอไป
F#m Bm Em A
จะมีฉันเป็นเพื่อนใจ อย่าหวั่นไหว ให้เธอเชื่อฉัน

( ซ้ำ * )

G D G D
เพียงแค่เธอต้องการฉันให้บอก เพียงแค่ใจเธอนะรัก ไม่หลอก
G D E7 A
ยอมให้เธอหมดไปแล้วทุกสิ่ง จากใจจริง จากใจฉัน

Instru : D/F#m/G/A/D/Bm/Em/A

D F#m G A
ร่วมมือกัน เพื่อสิ่งนั้นที่ยิ่งใหญ่ จะเป็นได้ถ้าเราช่วยกัน
D Bm Em A
แค่มีเธอ แค่มีฉัน ก็เท่านั้น ฝันคงเป็นไป
D F#m G A
ร่วมมือกัน เพื่อสิ่งนั้นที่ยิ่งใหญ่ จะเป็นได้ถ้าเธอช่วยฉัน
D Bm Em A G Gm D
แค่มีเรา แค่มีกัน ก็เท่านั้น ฝันคงเป็นไป อย่างที่ใจอยากให้เป็น

ส่งเพลงนี้ให้เพื่อน
วันที่โพสต์ : 31 ม.ค.2547,11:55น.
จำนวนผู้ชม : 44859 คน / แสดงความคิดเห็น : 4 ครั้ง
โพสต์โดย


จาก: หนึ่ง ยังรักตาลเหมือนเดิม
Guest
เพลงแนะนำ
เพลงฮิต
เลือกแสดงเฉพาะ :

  • ก้องหอวังนน08
    Guest
  • 31 ม.ค.2547,16:06น.
    อยากด้ายอินโทืรกะโซโล่อ่ะคับ
    ((ขอคอร์ดกีต้าร์))
  • 21
    Guest
  • 1 ก.พ.2547,12:01น.
             
  • 54
    Guest
  • 1 ก.พ.2547,12:02น.
              
  • เป้ loso
    Guest
  • 3 ก.พ.2547,18:57น.
    +++บ้ากระจอกมาก   
  • แดน
    Guest
  • 20 ก.พ.2547,18:02น.
    อินโทร
    D
    เร ลา เร โด# ที ลา
    G
    ซอล ฟา# มี เร โด#
    D
    เร ลา เร โด# ที ลา
    A
    ลา โด# มี ลา
  • งง
    Guest
  • 28 ก.พ.2547,17:53น.
    โซโล่ อะ
  • โด่ง
    Guest
  • 4 มี.ค.2547,14:54น.
    ก็ดีครับ  
  • ออฟเด็กราชบุรี
    Guest
  • 15 มี.ค.2547,11:01น.
    ขอโซโล่ที่เป็นเท็บ 
  • โม
    Guest
  • 30 ก.ค.2547,03:40น.
    จากคนที่ 5 คงได้แบบนี้มั้ง
    D G
    เร ลา เร โด# ที ลา ซอล ฟา# มี เร โด#
    1)--------------------------------------------------------------------------
    2)--------------------------------------------------------------------------
    3)----------2-----------------3--2---------------------------------------
    4)----0-------0--------------------------------5------3-----2----------
    5)------------------------3--------------------------------------------5---3-
    6)--------------------------------------------------------------------------

    D A
    เร ลา เร โด# ที ลา ลา โด# มี ลา
    1)----------------------------------------------------------------
    2)----------------------------------------------------------------
    3)---------2------------3--2----------------2---------2------
    4)---0---------0--------------------------------------------2---
    5)------------------3----------------------------3--------------

    ไม่รู้ใช่เปล่า มั่วตามโน๊ตที่ให้มา
  • เอ๋
    Guest
  • 24 ก.ย.2547,10:09น.
    -------------0---------------แบบเนี้ยหมายความว่ายังไงอ่ะคับหรือว่าดีดสายเปล่า
  • เอ๋
    Guest
  • 24 ก.ย.2547,10:09น.
    -------------0---------------แบบเนี้ยหมายความว่ายังไงอ่ะคับหรือว่าดีดสายเปล่า
  • เอ๋
    Guest
  • 24 ก.ย.2547,10:09น.
    -------------0---------------แบบเนี้ยหมายความว่ายังไงอ่ะคับหรือว่าดีดสายเปล่า
  • TINO
    Guest
  • 24 ก.ย.2547,15:45น.
     แปลว่า ให้ดีดสายนั้นโดยไม่ต้องกดเส้นใดเลย ดีดสายปล่าว 
  • งง
    Guest
  • 4 เม.ย.2548,14:05น.
    --------------------2-----3-2-------------------------------------  แบบนี้มันคืออะไร
    งงงงงงงงงงงงงงงงงงงงงงงงงงงงงงงงงงงงง ครับ
    ((ขอคอร์ดกีต้าร์))
  • fff
    Guest
  • 17 พ.ค.2549,15:57น.
    เพื่อนใจ 
    Artist : โลโซ

    Artist : Loso
    Title : เพื่อนใจ


    Intro : D/G/D/G A/D/G/D/A/

    D F#m Bm G
    หากวันนี้ ไม่มีเธอ ก็ไม่รู้ว่าฉัน จะเป็นเช่นไร
    F#m Bm Em A
    โลกใบนี้ ช่างเป็นใจ ที่ทำให้ฉันได้เจอกับเธอ

    D F#m G A
    * ร่วมมือกัน เพื่อสิ่งนั้นที่ยิ่งใหญ่ จะเป็นได้ถ้าเราช่วยกัน
    D Bm Em A D
    แค่มีเธอ แค่มีฉัน ก็เท่านั้น ฝันคงเป็นไป อย่างที่ใจอยากให้เป็น

    Instru : D/G/D/A

    D F#m Bm G
    สุดขอบฟ้า ที่แสนไกล จะแห่งไหน ที่ใดถ้ามีเธอไป
    F#m Bm Em A
    จะมีฉันเป็นเพื่อนใจ อย่าหวั่นไหว ให้เธอเชื่อฉัน

    ( ซ้ำ * )

    G D G D
    เพียงแค่เธอต้องการฉันให้บอก เพียงแค่ใจเธอนะรัก ไม่หลอก
    G D E7 A
    ยอมให้เธอหมดไปแล้วทุกสิ่ง จากใจจริง จากใจฉัน

    Instru : D/F#m/G/A/D/Bm/Em/A

    D F#m G A
    ร่วมมือกัน เพื่อสิ่งนั้นที่ยิ่งใหญ่ จะเป็นได้ถ้าเราช่วยกัน
    D Bm Em A
    แค่มีเธอ แค่มีฉัน ก็เท่านั้น ฝันคงเป็นไป
    D F#m G A
    ร่วมมือกัน เพื่อสิ่งนั้นที่ยิ่งใหญ่ จะเป็นได้ถ้าเธอช่วยฉัน
    D Bm Em A G Gm D
    แค่มีเรา แค่มีกัน ก็เท่านั้น ฝันคงเป็นไป อย่างที่ใจอยากให้เป็น


  • อยากฟังวงเพื่อน
    Guest
  • 13 ก.ค.2549,16:03น.
    นึกว่าวงเพื่อน  
  • 555+
    Guest
  • 3 มิ.ย.2550,19:00น.
    หนุกดีคับ
  • ต้าร์โลโล
    Guest
  • 6 ก.ย.2550,23:28น.

    1)--------------------------------------------------------------------
    2)-------------------------------------------------------------------
    -3)--------------------7---6-------------------------------------------
    4)---7-------------------------9----7----5---4-----------------------------
    -5)--5-----7สไลด์8------------------------------7--5--4---5-------------------------
    -6)------------------------------------------------------------------

    เล่น2รอบ
1

ขอเชิญร่วมแสดงความคิดเห็นครับ

คลิกที่รูป เพื่อแทรกรูปลงในข้อความ
  • Member :
    username
    password
  • Not a member :
    name
    email