Loading

เพลง เพื่อเธอตลอดไป

ศักดา พัธสีมา

อัพโหลดคลิปเพลงนี้ที่คุณ ร้อง/เล่น ด้วยตัวคุณเอง ได้แล้ววันนี้
ระหว่างการทดสอบระบบหากพบข้อผิดพลาด กรุณาแจ้งที่นี่
Print

เพลง :  เพื่อเธอตลอดไป
ผู้ร้อง : ศักดา พัธสีมา
อัลบั้ม : แอม-ดา
คำร้อง : จักราวุธ แสวงผล
ทำนอง : ชาตรี คงสุวรรณ

intro. D5 F#m7/ Bm A / G F#m / A Asus4 /A

Em A Dmaj7 Em A Dmaj7
อาจยังไม่เห็น ว่ารักมากมาย อาจยังสงสัย ผู้ชายคนนี้

B7 Bb7 A7 A F#m Bm Csus2 Bm Asus4 A
อาจยังไม่เห็น สายตา แห่งความหวังดี แต่เธอก็คงเข้าใจมันสักวัน

Em A Dmaj7 Em A Dmaj7
อาจมีใครใคร ที่เขา ดีกว่า อาจยังมีคน ที่เธอใฝ่ฝัน

B7 Bb7 A7 A F#m Bm Em A D
แต่จะมีใคร ให้เธอ หมดใจ อย่างฉัน และมันจะมีให้เธอเพียงคนเดียว

G A F#m Bm G A D
อยู่มาจนวันนี้ เพื่อเจอเธอ จะอยู่เพื่อเธอตลอดไป

G A F#m Bm Csus2 Bm Asus4
จะเอาความรัก ที่มีเก็บไว้ เพื่อรอคอยวันที่เธอมองผ่านมา

Em7 D Asus4 A
อาจจะมีเวลาที่เธอต้องการ

Em A Dmaj7 Em A Dmaj7
อีกนานแค่ไหน รักนี้ก็ยังอยู่ อยู่เป็นรักแท้ เพื่อเธอเท่านั้น

B7 Bb7 A7 A F#m Bm
ด้วยใจที่พร้อม ให้เธอจากคนอย่างฉัน

Em Asus4 Em Asus4
กับวันเวลาที่ยาวนาน คงจะทำให้รอเธอ

Em A D B7 Bb7 A7 A D B7 Bb7 A7 A Dmaj7 Dmaj7
และคงจะทำให้เธอได้รู้
http://www.musicatm.com/thai/คอร์ดเพลง-เพื่อเธอตลอดไป-ศักดา-พัธสีมา-1972.html
ส่งเพลงนี้ให้เพื่อน
วันที่โพสต์ : 22 เม.ย.2547,08:14น.
จำนวนผู้ชม : 342427 คน / แสดงความคิดเห็น : 101 ครั้ง
โพสต์โดย


จาก: Mashimaro
Guest
เพลงแนะนำ
เพลงฮิต
เลือกแสดงเฉพาะ :

  • Mashimaro
    Guest
  • 22 เม.ย.2547,15:41น.
    Tablature Explanation:
    h = hammer-on
    p = pull-off
    / = slide up or indicates rapid picking
    \ = slide down
    b = bend
    ^ = bend full
    br, ^r = bend & release
    ~ = hold note (vibrato)
    <> = harmonic

    D5 F#m7 Bm G
    e:--5--------5--3----------|--2----------------------------|--7-----7-----5-----5------|
    B:--3-----3-----------2~---|--3--------3--3/5--3-----------|--------------7------------|
    G:--2--2-----------2-------|--4-----4-------------4--4/7---|-----7-----7--6--6-----6---|
    D:--0----------------------|--4--4-------------------------|--5-----------4------------|
    A:--------------4----------|--2----------------------------|---------------------------|
    E:-------------------------|-------------------------------|---------------------------|

    อาจยังไม่ เห็น ว่ารัก มากมาย
    A Asus4 A.H. Em A
    e:---------------------------|----------<17>~~~----------|--------3-----------0--------|
    B:--2--------2--3--------3---|--5h3----------------------|--------5-----------2--------|
    G:--------2-----------2------|-------2~------------------|-----4-----4-----2-----2-----|
    D:-----2-----------2---------|---------------------------|-----------------------------|
    A:--0------------------------|---------------------------|--------------0--------------|
    E:---------------------------|---------------------------|--0--------------------------|

    อาจยังสง สัย ผู้ชาย คนนี้ อาจยังไม่ เห็น สายตา แห่งความ
    Dmaj7 Em A Dmaj7 B7 Bb7 A7 A
    e:--------2-----------5~---|--------3-----------0------|--------2-----5-----4------|--3-----3-----------0------|
    B:--------2-----------2~---|--------5-----------2------|--------2------------------|--------2-----------2------|
    G:-----2-----2-----2-------|-----4-----4-----2-----2---|-----2-----------4-----3---|-----2-----2-----2-----2---|
    D:--0-----------0----------|---------------------------|--0--------0--4-----3------|--2------------------------|
    A:-------------------------|--------------0------------|---------------------------|--------------0------------|
    E:-------------------------|--0------------------------|---------------------------|---------------------------|

    หวังดี แต่ เธอก็คงเข้าใจมันสัก วัน
    F#m Bm Csus2 Bm Asus4
    e:--------2------------------|-----------3---------------|-----------------------------|
    B:--------2--------------3---|--------3--------------3---|--------3~--3--3~--2---------|
    G:-----2-----2--------4------|-----0--------------4------|--------2~--2--2~--2---------|
    D:-----------------4---------|-----------------4---------|-----2-----------------------|
    A:--------------2------------|--3-----------2------------|--0--------------------------|
    E:--2------------------------|---------------------------|-----------------------------|

    อาจมีใคร ใคร ที่เขา ดี กว่า อาจยังมี
    A Em A Dmaj7
    e:--5~-----------------------|--------3-----------0------|--------2-----------2~-------|
    B:--2~-----------------------|--------5-----------2------|--------2-----------2~-------|
    G:--2~-----------------------|-----4-----4-----2-----2---|-----2-----2-----2-----------|
    D:--2~-----------------------|---------------------------|--0-----------0--------------|
    A:--0~-----------------------|--------------0------------|-----------------------------|
    E:--------------------3--2---|--0------------------------|-----------------------------|

    คน ที่เธอ ใฝ่ ฝัน แต่จะมี ใคร ให้เธอ หมด ใจ อย่างฉัน และ
    Em A Dmaj7 B7 Bb7 A7 A F#m Bm
    e:--------3-----------0------|--5--2--2-----5-----4------|--3-----3-----------0------|--------2------------------|
    B:--------5-----------2------|--------2------------------|--------2-----------2------|--------2--------------3---|
    G:-----4-----4-----2-----2---|-----------------4-----3---|-----2-----2-----2-----2---|-----2-----2--------4------|
    D:---------------------------|--0--------0--4-----3------|--2------------------------|-----------------4---------|
    A:--------------0------------|---------------------------|--------------0------------|--------------2------------|
    E:--0------------------------|---------------------------|---------------------------|--2------------------------|

    มันจะมีให้เธอเพียงคน เดียว อยู่ มาจนวันนี้ เพื่อ เจอ เธอ จะ
    Em A D G A F#m Bm
    e:--------3-----------5------|--2--------2--3-----5------|--3-----3-----5-----5------|--2-----2-----------2------|
    B:--------5-----------2------|--------3------------------|--------3-----------2------|--------2-----3-----3------|
    G:-----4-----4-----2-----2---|-----2-----------0-----2---|-----4-----4-----2-----2---|-----2-----2-----4-----4---|
    D:---------------------------|--0------------------------|---------------------------|---------------------------|
    A:--------------0------------|---------------------------|--------------0------------|--------------2------------|
    E:--0------------------------|--------------0-----2------|--3------------------------|--2------------------------|

    อยู่เพื่อเธอตลอด ไป จะ เอา ความรัก ที่ มี เก็บไว้ เพื่อ
    G A D G A F#m Bm
    e:--7-----3-----0-----0------|--2--------2--3-----5------|--3-----3------------------|--2-----2------------------|
    B:--------3-----------2------|--------3------------------|--------3-----------2------|--------2--------------3---|
    G:-----4-----4-----2-----2---|-----2-----------0-----2---|-----4-----4-----2-----2---|-----2-----2--------4------|
    D:---------------------------|--0------------------------|---------------------------|-----------------4---------|
    A:--------------0------------|---------------------------|--------------0------------|--------------2------------|
    E:--3------------------------|--------------0-----2------|--3------------------------|--2------------------------|

    รอคอยวันที่เธอมองผ่าน มา อาจจะ มีเวลาที่เธอ ต้อง
    Csus2 Bm Asus4 Em7 D
    e:-----3---------------------|-----------------------------|--------3~-------------|
    B:--------3--------------3---|-----------3--2h3p2----------|--------3~--------3~---|
    G:-----------0--------4------|--------2------------2-------|-----4---------2-------|
    D:-----------------4---------|-----2------------------2~---|------------0----------|
    A:--3-----------2------------|--0--------------------------|-----------------------|
    E:---------------------------|-----------------------------|--0--------------------|

    การ อีกนานแค่ ไหน รักนี้ ก็ยัง
    Asus4 A Em A
    e:-----------------------|-----5~----------------------|--------3-----------0------|
    B:--------3~--3--3~--2---|-----2~----------------------|--------5-----------2------|
    G:--------2~--2--2~--2---|-----2~----------------------|-----4-----4-----2-----2---|
    D:-----2-----------------|-----2~----------------------|---------------------------|
    A:--0--------------------|-----0~----------------------|--------------0------------|
    E:-----------------------|----------------------3--2---|--0------------------------|

    อยู่ อยู่เป็นรัก แท้ เพื่อเธอ เท่า นั้น ด้วยใจที่ พร้อม ให้เธอ จาก
    Dmaj7 Em A Dmaj7 B7 Bb7 A7 A
    e:--------2-----------2~---|--------3-----------0------|--------2-----5-----4------|--3-----3-----------0------|
    B:--------2-----------2~---|--------5-----------2------|--------2------------------|--------2-----------2------|
    G:-----2-----2-----2-------|-----4-----4-----2-----2---|-----2-----------4-----3---|-----2-----2-----2-----2---|
    D:--0-----------0----------|---------------------------|--0--------0--4-----3------|--2------------------------|
    A:-------------------------|--------------0------------|---------------------------|--------------0------------|
    E:-------------------------|--0------------------------|---------------------------|---------------------------|

    คน อย่างฉัน กับ วันเวลาที่ยาวนาน คงจะทำให้รอเธอ และ คงจะทำให้เธอ ได้รู้
    F#m Bm Em Asus4 Em Asus4 Em
    e:--------2-----------2------|--------3------------|--------3------------------|--3-----3-----5------------|
    B:--------2-----------3------|--------5-----3--3---|--------5-----------3------|--------5-----------3------|
    G:-----2-----2-----4-----4---|-----4-----4--2--2---|-----4-----4-----2-----2---|-----4-----4-----2-----2---|
    D:---------------------------|--------------2--2---|--------------2------------|---------------------------|
    A:--------------2------------|---------------------|---------------------------|--------------0------------|
    E:--2------------------------|--0------------------|--0------------------------|--0------------------------|


    D B7 Bb7 A7sus4 A D B7 Bb7 A7sus4 A
    e:-----------2--5-----4------|--3--------3--2-----0------|-----------2--5-----4------|--3--------3--2-----0------|
    B:--------3------------------|--------3-----------2------|--------3------------------|--------3-----------2------|
    G:-----2-----------4-----3---|-----2-----------2-----2---|-----2-----------4-----3---|-----2-----------2-----2---|
    D:--0-----------4-----3------|--2-----------0------------|--0-----------4-----3------|--2-----------0------------|
    A:---------------------------|---------------------------|---------------------------|---------------------------|
    E:---------------------------|---------------------------|---------------------------|---------------------------|


    Asus4 A A.H. A.H. A.H.
    e:-----------------------------|--5~------<17>--<14>---------|
    B:--------3-----2h3p2----------|--2~-------------------------|
    G:-----2-----2---------2---2---|--2~------------------<14>---|
    D:------------------------2----|--2~-------------------------|
    A:--0--------------------------|--0~-------------------------|
    E:-----------------------------|-----------------------------|
    ((อัพเดทคอร์ดกีต้าร์))
  • ...ตูดหมึก...
    Guest
  • 24 เม.ย.2547,15:08น.
    .................. .........ขอคาราวะพี่จิงๆ........
  • Mashimaro
    Guest
  • 25 เม.ย.2547,18:29น.
    copy tab แล้วเอาไปวางในโปรแกรม  WordPad ที่มีใน Accessories 
  • Mashimaro
    Guest
  • 25 เม.ย.2547,18:39น.
    เปลี่ยนอักษรทั้งหมด( Clrt+A ) เป็น Courier New ( western ) ขนาด 10
    จากนั้น File >> Page Setup...>>เลือก Landscape และ left เป็น 0 right เป็น 0
  • Mashimaro
    Guest
  • 25 เม.ย.2547,18:48น.
    A.H. คือ ARTIFICIAL   HARMONICS
    <17> แปลว่านิ้วมือซ้ายกดที่เฟรด 5 มือขวานิ้วชี้แตะอยู่ที่ เฟรด 17 บริเวณที่เป็นเหล็ก
    แล้วใช้นิ้วกลางมือขวาดีด
  • Phoenix
    Guest
  • 25 เม.ย.2547,23:57น.
       สุดยอดอ่ะ แต่งงกะสัญสักษณ์อ่ะอย่างแรง
    แบบว่าเพิ่งหัดเกากีต้าร์อ่ะ ถึงยังเล่นไม่เป็น
    แต่ก็สุดยอด...อย่างแรง
  • คนโง่อยากรู้
    Guest
  • 29 เม.ย.2547,11:04น.
    มึนตึ๊บของ่ายๆก่านี้ได้มั้ยคับพี่คนเก่ง
  • Thunder
    Guest
  • 3 พ.ค.2547,14:20น.
    เล่นได้แต่Introอ่ะครับ ไม่แน่ใจว่าใช่แบบนี้รึเปล่า มีคนสอนมา แต่มันก็เหมือนเพลงจริงๆเด๊ะเลย
    +++แบบนี้มันอ่านไม่ค่อยรู้เรื่องอ่ะครับ ไม่รู้อ่านกลับหัวรึเปล่า อิอิอิ
  • Thunder
    Guest
  • 5 พ.ค.2547,16:28น.
    ลองไปเล่นดูแล้วนะครับ โน็ตใกล้เคียงมากกับที่ผมเล่น(หรืออาจจะเหมือนเลย...) แต่ปัญหาก็คือ คอร์ดกีต้าร์กับเนื้อร้องไม่ตรงกันเลยครับ อย่างเช่นตรงช่องที่5ที่เขียนว่า"<17>" มันเพิ่งจะจบIntroเอง แล้วช่องต่อไปก็จะเข้าเนื้อร้อง ลงตรงคำว่า เห็น(อาจยังไม่"เห็น") แต่ยังไงก็ขอบคุณครับที่ทำสุดความสามารถ 
  • pp
    Guest
  • 7 พ.ค.2547,16:54น.
      
  • เด็กน้อย...
    Guest
  • 6 มิ.ย.2547,09:33น.
    มีง่ายๆก่านี้มั้ยอ่า....ผมเพิ่งเริ่มเล่น
    แต่ชอบเพลงนี้มาก อยากเล่นได้อ่า....
  • นู๋ อิ๋ง
    Guest
  • 4 ก.ค.2547,11:42น.
    โห...................... 




  • ไก่
    Guest
  • 11 ก.ค.2547,22:35น.
     

    D A7/C# Bm A G D/F#
    1)-5-------5--3---------2-----------------------------7-----7-------5--------5----------------------
    2)-3----3-----2----2---3--------3--3/5-3----------8--------------7--------------------------------
    3)-2--2-------2--2-----4-----4--------------4--4/--7--7-----7----7---7-------7-----------------
    4)-0-----------x---------4--4--------------------------5--------------4-----------------------------
    5)--------------4---------2--------------0-------------------------------------------------------------
    6)-------------------------------------------------------------------------------------------------------


    A Asus4 A
    Ham.
    1)--------------------------------------------5--(17)--------------------------------------------------
    2)---2--------2--2^3--------3--3^5----------------------------------------------------------------
    3)---------2----------------2------------2-------------------------------------------------------------
    4)------2----------------2------------------------------------------------------------------------------
    5)---0---------------0------------------------------------------------------------------------------------
    6)--------------------------------------------------------------------------------------------------------

    หาเข้าจังหวะเองนาคุบ

    Em7 A7 Dmaj7 Em7 A7
    1)------------------------------------------------------------5-------------------------------------------
    2)---------------8-------------5-------------7------------------------8-------------5--------------------
    3)---------------7-------------6-------------6-----------6------------7-------------6-----------------
    4)----------9--------------5-------------7-----------7-----------9--------9-----5--------------------
    5)------------------------------------5------------5-----------------------------------------------------
    6)------0---------------5---------------------------------------0--------------5-----------5-----------

    Dmaj7 F#m7 Fm7 Em7 A F#m Bm
    1)---------------------------------------------------------------------------------------------------------
    2)------------7----------10------9---------8-------8------------5----------------2-------------3----
    3)------------6---------------------------------------7------------6----------------2--------4--------
    4)--------7-------------------11------10-------9------------7----------------4---------4-----------
    5)----5-----------5------9--------8--------7------------------------------------------2----------------
    6)----------------------------------------------------------5-------------5---2-------------------------

    Csus2 Bm Asus4 A

    1)---------------3---------------------------------------------------------5-------------------------------
    2)------------3----------------------------3----3---3---2---------------2---------------------------------
    3)---------------------------4--------2---2----2---2----2--------------2---------------------------------
    4)--------5-------------4-------------------------------------------------2--------------------------------
    5)----3--------------2------------0-------------0--0----0--------------0--------------------------------
    6)-------------------------------------------------------------------------------------------------------------


    เด๋วมาต่อพุ่งนี้ฮะ
    มะต้องด่าว่ามะเหมือนนะ
    มะได้แกะเอง
    อยากด่า
    ไปด่าคนแกะ


  • ไก่
    Guest
  • 11 ก.ค.2547,23:08น.
    ต่อๆๆๆ
    เล่นต่อเนื่องนาคุบ

    1)-------------------3----------------------------------5-------------------------3-----------------------
    2)-------------------3------------5-------------7-------------7------------------3------------------------
    3)----------------4-----4--------6-------------6--------------6-------------4-------4------------------
    4)-----------------------------7-----7------7--------------7---------------------------------------------
    5)----------------------------------------5----------5--5----------5-------------------------------------
    6)----3--2--0-------------5----------------------------------------------0--------------------------------



    1)--------------------------------5------------------------------------7----------------------------------
    2)-----------5--------------7----7-------10-------9----------8-----8-------------5--------------------
    3)-----------6--------------6---------------------------------------------------------6--------------------
    4)--------7------------7-----------------------11-------10-------9------9-----7------------------------
    5)----------------------5--------------5---9--------8----------7------------------------------------------
    6)----5----------5--------------------------------------------------------------5-----------5---------------



    1)------------------------------------------------------------5--------2--------2--3---5---------------
    2)-------------------------------3----------3----------------5--------------3---------------------------
    3)----------2---------------4--------------4-----------------------------2------------------------------
    4)------4-------4------4---------------5------5-------7-------------0----------------------------------
    5)-------------------2-------------------------------0-------------0-------------------------------------
    6)---2--------------------------------0--------------------------------------------0----2-----------------



    1)---3----------------5---------------2--------------------------------7---------------------------------
    2)------------3---------------5----------------2-------3------3--------------8------5-----5----------
    3)------------4---------------6----------------2---------------4--------------7-------------6----------
    4)--------5-------5------7-------7--------4-------4------4------4------9------9------7-----7------
    5)--------------------------------------------------------2-------------------------------------------------
    6)----3---------------5----------------2--------------------------------0-------------5-----------------



    1)-----------5-------3-------5-------3----------------------5---------------2---------------------------
    2)------7---7-----------3-------3-----------3------5---5-----------2------------------------3--------
    3)---------------------------------------------4---------------6--------------------2--------4-------------
    4)-----------------------------------------5------5-------7---------------4--------------4----------------
    5)--5------------5---------------------------------------------------------------------2-----------------
    6)---------------------0------2-------3--------------5-----------5---2--------------------------------


    1)------3-------------------------------------------------------------0-----------------------------------
    2)----------3-----------------------------3-2^3^2--------------0--------------3---------------------
    3)--------------5----------4----------2--------------2--------0-------------2---------------------------
    4)----------------------4-----------2--------------------2----------------0-------------------------------
    5)---3--------------2-----------0-------------------------------------------------------------------------
    6)-------------------------------------------------------------0--------------------------------------------


    1)---------------------------------5----------------------------------------------------------------------
    2)---------3----3--3----2-------2--------------------------------------------------------------------
    3)-----2--2----2---2----2-------2----------------------------------------------------------------------
    4)---------------------------------2---------------------------------------------------------------------
    5)--0-----0----0----0---0------0------------------------------------------------------------------------
    6)---------------------------------------------------------------------------------------------------------

    เด๋วมาใหม่
    เหลือท่อนเดียวเร้วหละ
    ((อัพเดทคอร์ดกีต้าร์))
  • ไก่
    Guest
  • 13 ก.ค.2547,20:29น.
    1)-----------------------------------------------------------------5----------------------------------------
    2)----------------0---------------2--------------7---------------7-------------8-------------5-----------
    3)----------------0--0-----------2--------------6------------------------------7-------------6-----------
    4)-------------2-------------2----------------7--------------7--------------9-------------7-------------
    5)------------------------0------------0--5----------5---5-----------5----------------------------------
    6)--3--2--0---------------------------------------------------------------0--------0--5--------------5--

    1)---------5-----10--------9----------------7-----------------------------------------------------------
    2)---------7---------------------------8------8---------------5---------------2------------------3-------
    3)---------------------------------------------------------------6---------------2------------4------------
    4)-----7---------------11-------10------9-------9-------7----------------4---------4-------------------
    5)--5----------5--9--------8---------7--------------------------------------------2--------------------
    6)-------------------------------------------------------5-----------0---2---------------------------------


    1)------------------------------------------------------3------3-------5---------------------------------
    2)---------8-----5-5----------------0------------2----------3----------------2------------------------
    3)---------7-----6-6-------------0------------2----------4-----4--------2-------2--------------------
    4)------9-----9----------------2-----------2--------------------------------------------------------------
    5)-----------------------------------------0-----------------------------0--------------------------------
    6)--0-------------5-5------0-------------------------0----------------------------------------------------


    1)-----------------------------------------------------------------------------------------------------------
    2)------------7--10--------9---------8-----------8---7-------5------------7--10-----9---------------
    3)--------6-----------------------------7-------7---------------6---------6-------------------------------
    4)-----7---------------11------10----9---9---------------5----------7------------11-----10---------
    5)--5-------------9---------8---------7-----------------------------5------------9------8---------------
    6)---------------------------------------0----------------5------------------------------------------------


    1)-----------------------------------------------------------------------------------------------------------
    2)---8----------8-----------3-----2^3^2---------------------------------------------------------------
    3)-----------7--------------------------------2-------2----------------------------------------------------
    4)-------9---------------2------2----------------2--------------------------------------------------------
    5)---7----------------0-------------------------------------------------------------------------------------
    6)------------------------------------------------------------------------------------------------------------


    Harm..................................
    1)----5-------5(17)-------------------------------------------------------------
    2)----7------------------7(19)-----------------------------------------------------
    3)----6-----------------------------6(18)----------------------------------------
    4)----7-----------------------------------------------------------------------------
    5)----5------------------------------------------------------------------------------
    6)-----------------------------------------------------------------------------------
    ((อัพเดทคอร์ดกีต้าร์))
  • บาส
    Guest
  • 15 ก.ค.2547,14:38น.
    โครตชอบเว็บนี้เลย คอกีต้าร์เหมือนกับ
  • ต้อม
    Guest
  • 15 ก.ค.2547,15:05น.
    ดูไม่เป็นอะคับ ใครดูเป็นบ้างสอนวิธีดูหน่อย นะคับ รบกวนทีนะคับขอบคุณมากคับ
    tom_jeerawathotmail.com
  • คุน Berdon
    Guest
  • 16 ก.ค.2547,16:15น.
    หวังว่าไอต้าคงดูเปงนะ
  • กัน
    Guest
  • 24 ก.ค.2547,09:24น.
    ข้างบนแท็บแรกอ่ะแท็บของกีต้าหรอ
  • alwe
    Guest
  • 1 ก.ย.2547,11:01น.
                      

  • f4
    Guest
  • 3 ต.ค.2547,21:04น.
    f4
  • www
    Guest
  • 4 ต.ค.2547,23:23น.
    ชอบมากๆๆค่ะ 
  • Sniper
    Guest
  • 17 ก.พ.2548,20:52น.
    อยาได้คอร์ดก อีเล็คโทนง่า
  • Zimply_zound
    Guest
  • 23 ก.พ.2548,08:40น.
    เพลงนี้เพราะมากๆเลยครับ เหมาะกับคนที่มีรักแท้จิงๆ แล้วได้เล่นให้ ญ ฟังนะโหยซึ้งโคตรๆ รับรองว่าเค้ารักตายเลยอ่า  คนแกะเก่งมากๆเลยครับ ขอบคุณมากคับที่แกะสุดยอดดดด....... 
  • โออิชิ
    Guest
  • 11 มี.ค.2548,09:10น.
    ชอบมากๆๆๆๆๆๆๆๆๆๆๆๆๆๆๆๆๆๆๆๆๆๆๆๆๆๆๆๆๆๆๆๆๆๆๆๆๆๆๆๆๆๆๆๆๆๆๆๆๆๆๆๆๆๆๆนะครับ          
  • ยุทธ
    Guest
  • 14 มี.ค.2548,12:40น.
    ฟังแล้วรู้สึกสบาย ๆ ไม่เครียดดี    
  • J U e*
    Guest
  • 14 มี.ค.2548,17:54น.
    เก่ง โครตเลย ทั่น 

    สุดๆๆๆๆ
  • nuttyzero
    Guest
  • 30 มี.ค.2548,17:50น.
    ของเพลงนี้ที่ไฟล mp3 ได้ไหมครับ หรือใครรู้เวปอื่นก้ลิ้งมาให้ผมที งับ
  • ต้อม
    Guest
  • 6 พ.ค.2548,23:47น.
    อยากทราบคำอธิบายของสัญลักษณ์

    h = hammer-on

    p = pull-off

    / = slide up or indicates rapid picking

    \ = slide down

    b = bend

    ^ = bend full

    br, ^r = bend & release

    ~ = hold note (vibrato)

    <> = harmonic

    ครับ มือใหม่ต้องการความรู้ครับ ขอบคุณครับ
  • Tc
    Guest
  • 7 พ.ค.2548,00:24น.
    มือใหม่เหมือนกานอ่าคับแต่รุแค่

    hammer on คือเคาะคับ แบบว่า 1h2 คือดีดตอนกกดเฟรต1แล้วใช้นิ้วเคาะที่เฟรต2
    โดยยังกดเฟรต1ค้างอยู่

    pull off คือดันหรือดึงสายนั้นลงมา แบบว่า 1p2 คือ คล้ายๆ hammer on อ่าคับ
    แต่ไม่ใช่แค่เคาะแต่เป็นเคาะแล้วดีดลงมาด้วย

    slide up เอาง่ายๆก้อดีดแล้วรูดไป

    slide down เอาง่ายๆอีกก้อดีดแล้วรูดมา

    bend(shoke) คือกานดันสายขึ้น แบบขึ้นไปสายบนๆส่วนใหญ่จาใช้2-3นิ้วช่วยกานดัน

    hold ก้อปามานดีดแล้วนิ้วที่กดก้อสั่นๆ แล้วเสียงจาสั่นไปด้วย

    นอกนั้นก้อมะค่อยรุเหมือนกานฮะครายรุช่วยอธิบายด้วยคับ
    ((ขอคอร์ดกีต้าร์))

ขอเชิญร่วมแสดงความคิดเห็นครับ

คลิกที่รูป เพื่อแทรกรูปลงในข้อความ
  • Member :
    username
    password
  • Not a member :
    name
    email