Loading

ŧ ѡ

͡ (Dr.Fuu)

ѾŴԻŧس ͧ/ µǤسͧ ѹ
ҧ÷ͺкҡͼԴҴ س駷
Intro : / C D / Bm Em/ Am /D
G D Em C D G
ѡ ѹТ ͹ͧ 㨩ѹ
C D Bm Em Am C D
ѹͧʹ ҡѡҶ֧ҧѹ ѭҳѹнѹ֧
G D Em C D G
ѡТѹ Ѻդʺѡ
C D Bm Em Am D G
ӵҷѹԹ ҡѹ ʹҹ
C D Bm Em Am D G
* ѡ ͤԴҤӵͺ ҡͺ дʹҹ
C D Bm Em Am D Am D G
ѡ ҡӺҡ ɷ ѡͨѧվ

Instru / C D /
G D Em C D G
ˡѹ 駾ٴѡѹ ѹѹ Ѻ觷ѹѹ
C D Bm Em Am C D
ѧѧ ҡ͹鹺ѧԭǷ դԹҧѹ
( * )
Solo : / C D /
/ G D / Em / C D / G / C D / Bm Em / Am C / D /
( * ),( * )
Am D Am D G
ͧ ѹ Դѡҡҹ

ŧ͹
ѹʵ : 3 ..2550,14:10. 124.120.248.248
ӹǹ : 107603 / ʴԴ : 47
ʵ


ҡ: Ԥ
: 7 ա͹
ŧ: 3
ʵ: 2
ŧй
ŧԵ
͡ʴ੾ :

  • 3 ..2550,14:13. 124.120.248.248
    ҡѺ Ӣͺس ˹ҡ觾 Ҵ§
    ǵ͹ Solo ФѺ Ǩŧ
    nickbeepersriwattanahotmail.com ѲҨ ʹҤ¡ѹҧ
  • ѡ㨴
    Guest
  • 3 ..2550,20:19. 222.123.66.153
    ͺس
  • Ԥ յ ǧ ZenT (Ѳ)
    Guest
  • 6 ..2550,01:56. 124.121.208.228
    Intro 4 : -5-4-5--------5-4-5--------------------------5-4-----------------------------
    3 : ------------9-------------9-9/11-9---7--7--------7/9--7--5-5--5/3--2-2

    4 :--5--7---------3-5------------------------------
    3 :-----------------------3-5-5/7-----7-9---------
    2 :-------------------------------------------7-9----
    1 :--------------------------------------------------7
    ҪֻǹҤѺ ѧͧ2ͺ ŧѧ ФѺ ѭ
    >^0^<
  • Ѻ ⴹ
    Guest
  • 6 ..2550,01:56. 124.121.208.228
    Intro 4 : -5-4-5--------5-4-5--------------------------5-4-----------------------------
    3 : ------------9-------------9-9/11-9---7--7--------7/9--7--5-5--5/3--2-2

    4 :--5--7---------3-5------------------------------
    3 :-----------------------3-5-5/7-----7-9---------
    2 :-------------------------------------------7-9----
    1 :--------------------------------------------------7
    ҪֻǹҤѺ ѧͧ2ͺ ŧѧ ФѺ ѭ
    >^0^<


  • ͧФѺ ^^a
    Guest
  • 6 ..2550,01:58. 124.121.208.228
    Intro 4 : -5-4-5--------5-4-5--------------------------5-4-----------------------------
    3 : ------------9-------------9-9/11-9---7--7--------7/9--7--5-5--5/3--2-2

    4 :--5--7---------3-5------------------------------
    3 :-----------------------3-5-5/7-----7-9---------
    2 :-------------------------------------------7-9----
    1 :--------------------------------------------------7
    աͺ 㹤дǡ
  • ^^ش
    Guest
  • 6 ..2550,01:59. 124.121.208.228
    Intro 4 : -5-4-5--------5-4-5--------------------------5-4-----------------------------
    3 : -------------------9-------------9-9/11-9---7--7--------7/9--7--5-5--5/3--2-2

    4 :--5--7---------3-5------------------------------
    3 :-----------------------3-5-5/7-----7-9---------
    2 :-------------------------------------------7-9----
    1 :--------------------------------------------------7
    Ѻ ѹ˹᷹
  • Nick Zent Stech
    Guest
  • 6 ..2550,02:03. 124.121.208.228
    Mp3͹տѧ ԧѭ
    ҡ¡ѹʹ nickbeepersriwattanahotmail.com

  • Guest
  • 7 ..2550,09:00. 124.120.197.223
    ͺس ç
  • Zent Band
    Guest
  • 8 ..2550,14:56. 124.120.247.196
    &#65507;&#65507;&#65507;&#65507;
    &#12288;&#12288;&#12288;&#12288;&#12288;&#12288;&#12288;|&#12288;ѧѹ˹
    &#12288;&#12288;&#12288;&#12288;&#12288;&#12288;&#12288;&#65340;
    &#12288;&#12288;&#12288;&#12288;&#12288;&#12288;&#12288;&#12288; &#65507;&#8744;&#65507;&#65507;&#65507;&#65507;&#65507;&#65507;
    &#12288;&#12288;&#12288;&#12288;&#12288;&#12288;&#12288;&#12288;&#12288;&#12288;&#12288;&#12288;&#12288; &#12288;&#12288;&#12288;&#12288;&#8743;&#65343;&#8743; &#12288;&#12288;&#12288;&#12288;&#12288;&#65295;&#65507;&#65507;&#65507;&#65507;&#65507;&#65507;&#65507;
    &#12288;&#12288;&#12288;&#12288;&#12288;&#12288;&#12288;&#12288;&#12288;&#8743;&#65343;&#8743;&#12288;&#12288;&#12288;&#12288; &#65288; &acute;&#1044;&#65344; &#65289; &#12288;< ŧ Шԧ
    &#12288;&#12288;&#12288;&#12288;&#12288;&#12288;&#12288;&#12288; &#65288; &acute;&#1044;&#65344; &#65289; &#12288; &#65295;&#8978;&#12288;&#12288;&#12288;&#12288;&#8978;&#12541; &#12288;&#12288; &#65340;&#65343;&#65343;&#65343;&#65343;&#65343;&#65343;&#65343;
    &#12288;&#12288;&#12288;&#12288;&#12288;&#12288;&#12288;&#12288;&#65295;,&#12288;&#12288;/ &#12288; &#65295;_&#65295;|&#12288;&#12288;&#12288;&#12288;&#12288;&#12408;&#12288;&#65340;
    &#12288;&#12288;&#12288;&#12288;&#12288;&#12288;&#12288;(&#12355;&#65305;&#12288;&#12288;| &#12288;&#65288;&#12355;&#65305; ./&#12288;&#12288;&#12288;&#12288;/&#12288;&#12288; &#65340; &#65340;.&#8743;&#65343;&#8743;&#12288; &#65295;&#65507;&#65507;&#65507;&#65507;&#65507;&#65507;&#65507;
    &#12288;&#12288;&#12288;&#12288;&#12288; &#12288; /&#12288;&#12288;&#12288; /&#12289; &#12288;&#12288;&#12288;/&#12288;&#12288;&#12288; ./&#12288; &#12288;&#12288;&#12288;&#12541;&#12288;&#65288; &acute;&#1044;&#65344; &#65289;< ¡ѹ ŧ
    &#12288;&#12288;&#12288;&#12288;&#12288;&#12288; /&#12288;&#12288;&#12288;&#8743;_&#20108;&#12388; &#65288;&#12288;&#12288;&#12288;&#12288;/&#12288;&#12288;&#12288;&#12288;&#12288;&#12288;&#8746; ,&#12288;&#12288;/&#12288;&#12288;&#12288;&#65340;&#65343;&#65343;&#65343;&#65343;&#65343;&#65343;&#65343;
    &#12288;&#12288;&#12288;&#12288; &#12288; /&#12288;&#12288;&#12288;/ &#12288;&#12288;&#12288;&#12288;&#12288;&#65340;&#12288;.&#65340;&#65340;&#12288;&#12288;&#12288;&#12288;&#12288;(&#12355;&#65305;&#12288;&#12288;|
    &#12288;&#12288;&#12288;&#12288;&#12288; /&#12288;&#12288;&#12288; &#65340; &#12288;&#12288; &#12288;&#12288;&#12288;&#65340;&#12288;.&#65340;&#65340;&#12288;&#12288;&#12288; /&#12288;&#12288;&#12288; /&#12288;&#12288;,&#12289;&#12288;&#12288; &#12288;&#65288;&#65288;&#65288;&#12288;&#65289;&#65289;&#65289; &#12288;&#65295;&#65507;&#65507;&#65507;&#65507;&#65507;&#65507;&#65507;
    &#12288;&#12288;&#12288;&#12288;&#12288;/&#12288; /~&#65340;&#12288;&#65340; &#12288; &#12288;&#12288;&#12288;&#12288; >&#12288; &#65289;&#12288;&#65289;&#12288;&#12288;./&#12288;&#12288;&#12288;&#8743;_&#20108;&#8707; &#12288;&#12288;&#12288;&#65288; &acute;&#1044;&#65344; &#65289; &#65308; Ҵҧǵŧ
    &#12288;&#12288;&#12288;&#12288; /&#12288; /&#12288;&#12288;&#12288;>&#12288; &#65289; &#12288; &#12288;&#12288; /&#12288;&#65295;&#65295;&#12288;&#12288; ./&#12288;&#12288;&#12288;&#12288;&#65507;&#65507;&#12288;&#12541;&#12288; &#12288; (&#12355;&#65305;&#12288;&#12288;&#65289;&#12288;&#12288;&#65340;&#65343;&#65343;&#65343;&#65343;&#65343;&#65343;&#65343;
    &#12288;&#12288;&#12288;&#65295;&#12288;&#12494;&#12288; &#12288; /&#12288;&#65295; &#12288;&#12288; &#12288; /&#12288;/ /&#12288;&#12288;.&#65343;/&#12288; /~&#65507;&#65507;/&#12288;&#65295;&#12288;&#12288;&#12288;/&#12288; &#12288; &#8743;&#12388;
    &#12288;&#12288;/&#12288;&#65295; &#12288; .&#12288; / ./.&#12288;&#12288; &#12288;&#12288; /&#12288;/ /&#12288;.&#8978; &#65343; &#12494;&#12288;&#12288; &#12288; / ./&#12288;&#12288;&#12288;&#12288;/&#12288;&#12288;&#12288; /_
    &#12288; / ./&#12288;&#12288;&#12288;&#12288; &#65288;&#12288;&#12541;&#65380;&#12288; &#12288;&#12288; &#65288;&#12288;&#12541; &#12541;&#12288;|&#12288;/&#12288;&#12288;&#12288;&#12288;&#12288;&#12288; &#65288;&#12288;&#12541;&#65380; &#12288;&#12288; /&#12288;/&#8978;>&#12288; &#65289;

    &#65288;&#12288; _)&#12288;&#12288;&#12288;&#12288;&#65340;__&#12388;&#12288;&#12288;&#12288; &#65340;__&#12388;\. _&#12388;&#12288; &#12288;&#12288;&#12288;&#12288; &#65340;__&#12388;&#12288;&#65288;&#65343;&#12388;&#12288; &#65340;_&#12388;
  • й Ѻ
    Guest
  • 8 ..2550,14:59. 124.120.247.196
    ǵŧ¹ ŧ
  • Ѳ
    Guest
  • 20 ..2550,15:08. 124.120.209.5
    Ԥ
  • ԡ
    Guest
  • 20 ..2550,15:53. 58.8.128.74
    ¨
    Ǩ solo ...
    -'.'-
  • ͹
    Guest
  • 24 ..2550,12:35. 192.168.212.115 203.113.107.96
    ҡ¤
  • ͹
    Guest
  • 24 ..2550,12:37. 192.168.212.115 203.113.107.96
    ͺ觹Ф

  • Guest
  • 12 ..2551,23:46. 202.149.24.161
    ŧ
  • .
    Guest
  • 13 ..2551,00:17. 202.149.24.161
    6; ------------------------------------------------------------------------------
    5;11-10-11------11-10-11-----------------------9-10------------------------
    4:----------------------------------------------------------------10-10-9-7-----
    3:------------7/9--------------7/9-9/11---9-7-7---------7-7----------------
    2:------------------------------------------------------------------------------
    1: -----------------------------------------------------------------------------

    ǹԴ֧ФѺ͹

    6:--------------------------------------------------------------------------------
    5:--7-10-------------------------------------------------------------------------
    4:---------7-9-10-----------------------------------------------------------------
    3:-------------------7-9-12--------------------------------------------------------
    2:-----------------------------11------------------------------------------------------
    1:----------------------------------10-10-------------------------------------------

    ҤʹͧټԴç˹͡
  • .
    Guest
  • 13 ..2551,00:18. 202.149.24.129
    6; ------------------------------------------------------------------------------
    5;11-10-11------11-10-11-----------------------9-10------------------------
    4:----------------------------------------------------------------10-10-9-7-----
    3:------------7/9--------------7/9-9/11---9-7-7---------7-7----------------
    2:------------------------------------------------------------------------------
    1: -----------------------------------------------------------------------------

    ǹԴ֧ФѺ͹

    6:--------------------------------------------------------------------------------
    5:--7-10-------------------------------------------------------------------------
    4:---------7-9-10-----------------------------------------------------------------
    3:-------------------7-9-12--------------------------------------------------------
    2:-----------------------------11------------------------------------------------------
    1:----------------------------------10-10-------------------------------------------

    ҤʹͧټԴç˹͡
  • 18 ..2551,19:23. 58.136.60.253
    ŧ chordtab.in.th intro С solo ¹ФѺ 仴
    Ҫͺ 2 ҡ ÷ѡ յ ͹Ѻ ʹҤ¡ФѺ....

  • Guest
  • 19 ..2551,13:17. 124.157.228.109
    㨧Ѻ^^

  • Guest
  • 19 ..2551,20:50. 203.107.198.117
    ͹ ç
  • oat
    Guest
  • 20 ..2551,21:44. 203.113.67.7
    ҡҡ áª˹¹ййййФѺ

  • Guest
  • 21 ..2551,19:48. 124.157.208.184
    .. ҹҷ͹


    ((յ))
  • 硺ҹҴ 12/24
    Guest
  • 22 ..2551,11:55. 192.168.212.161 118.175.173.87
    ⴹ ҡ
  • 硺ҹҴ NP 2551
    Guest
  • 22 ..2551,12:00. 192.168.212.161 118.175.173.87
    ŧⴹҡ
  • john
    Guest
  • 23 ..2551,15:16. 203.113.18.232
    G major scale

    6:--------------------------------------------------------------------------------
    5:--7-9-------------------------------------------------------------------------
    4:---------7-9-/10-----------------------------------------------------------------
    3:-------------------9-11---------------11------------------------------------------
    2:-----------------------------10------------------------------------------------------
    1:------------------------------------------------/12-------------------------

    /=Ŵ
  • john
    Guest
  • 23 ..2551,15:35. 203.113.18.232
    INTRO G major scale ( G A B C D E F#)
    4 : -5-4-5-------------(ǡҧ5Ǫ4 մ-ŧ)
    3 : -------------------7/9----------(Ŵǹҡ 7 9 )

    4:--5-4-5-------------
    3:-----------------7/9--------11-9-7-7 (´)

    4:-4-5-----------------------------7---(ǡ)
    3:---------7-7-5-5------4-5-4-(hammer on -pull off)

    5:--7-9----------(ǪѺǹҧ)---------------------------------------------------------------
    4:---------7-9-/10----(Ǫйǹҧٴ10)-----------------------------------------------------------------
    3:-------------------9-11--(Ǫйǹҧ)----------------------11-(Ǫ)---------
    2:----------------------------------------------10--(ǡҧ)-------------------------------------
    1:--------------------------------------------------------------------/12(ǡ´)-------


    ԧ굹Ҩж١ͧФѺ ͹Ҩǡѹ˹蹷趹ѴФѺǹͫѡ
  • ׷׷
    Guest
  • 29 ..2551,14:10. 124.157.201.168
    ͧ蹤ʹ
  • (=T_T=)
    Guest
  • 2 ..2551,13:35. 118.174.52.191
    ѧǤԴ֧Όҡ ⴹش

ԭʴԴ繤Ѻ

ԡٻ áٻŧ㹢ͤ
  • Member :
    username
    password
  • Not a member :
    name
    email