Loading

เพลง เรื่องขี้หมา

y not 7

อัพโหลดคลิปเพลงนี้ที่คุณ ร้อง/เล่น ด้วยตัวคุณเอง ได้แล้ววันนี้
ระหว่างการทดสอบระบบหากพบข้อผิดพลาด กรุณาแจ้งที่นี่
เรื่องขี้หมา
Y NOT 7

Intro : Am/Em/F/G(2times)
G

Am Em
เจ็บจนได้ กับวันนี้
F G
ภูติผีตนใดกัน สิงให้เธอมันเปลี่ยนไป
Am Em
จบจนได้ อย่างปวดร้าว
F G
ไม่นึกว่าคนเรา ทิ้งขว้างกันได้ง่ายดาย
Am Em
หมดแรงสร้าง หมดแรงหวัง
F G
ไอ้ฉันมันจริงจัง ฉันก็มีแต่เสียใจ
Am Em
ขอบใจมาก ที่ทำฉัน
F G
ให้ทุกข์ทรมาน หวังว่าเธอคงสะใจ
C Cmaj7 Am
* แต่อย่าคิดว่าฉัน ไม่มีหนทางอื่น
G F G
ถึงใจมันขมขื่น แต่สักวันก็คงหาย
C Cmaj7 Am
แค่ผู้หญิงที่รักไม่จริง ทิ้งกันไป
G F G
ไม่ทำให้ถึงตาย เรื่องแค่นี้มันขี้หมา
F G
** ถึงจะเจ็บสักเท่าไร ไม่มีหรอกน้ำตา

Instru: Am(4times)

Am Em
อยู่มาได้ อยู่มาแล้ว
F G
ไม่เห็นต้องมีเธอ ฉันก็มีลมหายใจ
Am Em
อาจจะบ้า อาจจะเพี้ยน
F G
ก็เพราะเธอวนเวียน มาหลอกตามาหลอกใจ

( ซ้ำ *, *, ** , ** )

Instru: Am/Em/F/G/(2times)
G

ม่ายรุ้ว่าเวปนี้เคยลงเพลงนี้ยางถ้าลงแล้วก้อโทดที
ดาวน์โหลด Full Song
กด *424243015666584
กด *424243015666584
ดาวน์โหลด Truetone
กด *424218015666584
กด *424218015666584
กด *424218015666584
ดาวน์โหลด Poly
กด *424214015666584
กด *424214015666584
กด *424214015666584
ดาวน์โหลด Mono
กด *424211015666584
กด *424211015666584
กด *424211015666584
* อัตราค่าบริการดาวน์โหลด Fullsong, Truetone, Poly, Mono : 35 บาท/เพลง
ส่งเพลงนี้ให้เพื่อน
วันที่โพสต์ : 5 ธ.ค.2546,22:15น.
จำนวนผู้ชม : 94930 คน / แสดงความคิดเห็น : 20 ครั้ง
โพสต์โดย


จาก: ก้องหอวังนน08
Guest
เพลงแนะนำ
เพลงฮิต
เลือกแสดงเฉพาะ :

  • อ๋อง
    Guest
  • 6 ธ.ค.2546,10:01น.
    คนแรกคับ
  • ปากี้
    Guest
  • 6 ธ.ค.2546,13:00น.
    ขี้หมา

    เจ๋งๆๆ
  • karn
    Guest
  • 12 ธ.ค.2546,12:42น.
    ดีครับ  บางครั้งขี้เกียจแกะเพลงเอง  ต้องพิ์มพ์เนื้อร้อง ต้องแกะหมด
    ลองหาดูถ้ามีเนื้อเพลง ก็สบาย
  • sd
    Guest
  • 13 ธ.ค.2546,18:31น.
        
  • เจ๋งๆๆๆ
    Guest
  • 20 ธ.ค.2546,19:54น.
    ขอบคุณ
  • ผมมันโง่
    Guest
  • 30 มิ.ย.2547,19:57น.
    ขอเทปหน่อยครับ
  • ผมมันโง่
    Guest
  • 7 ก.ค.2547,16:22น.
    ผมมันโง่ (203.113.32.*) [ วันพุธ ที่ 30 มิถุนายน 2547 เวลา 19:57 น. ] [ x ] ผู้ตอบคนที่ 6 
    ขอเทปหน่อยครับ



  • คน
    Guest
  • 16 พ.ค.2548,22:17น.
    จั๊กหยั้ง
  • pak
    Guest
  • 20 ก.พ.2549,19:59น.
    ชอบเพลงนี้เหลือเกิน
  • โม โซโลเเมน
    Guest
  • 6 ต.ค.2549,22:35น.
    ขอบ ใจมากสหาย 
  • เวย์ วง แก๊นท์
    Guest
  • 14 พ.ย.2549,18:33น.
    1-----------------------------------------------------------------------------------------------------
    2-----------------------------------------------------------------------------------------------------
    3--------11--9/11----------11--9/11-----12/14--12-13-9--------------------------------
    4--9-9---------------9-7-9---------------9-------------------------------------------------------
    5------------------------------------------------------------------------------------------------------
    6------------------------------------------------------------------------------------------------------

    1-------------------------------------------------------------------------------------------------------
    2-------------------------------------------------------------------------------------------------------
    3---------11--9/11----------11--9/11-----12/14--12-11h12-9--9h11-9/7-9----------
    4---9-9--------------9-7-9----------------9---------------------------------------------------------
    5-------------------------------------------------------------------------------------------------------
    6-------------------------------------------------------------------------------------------------------

    ลองดูครับว่าถูกป่าว อินโทรนะ
  • กอฟกอบ
    Guest
  • 26 ม.ค.2550,11:15น.
    ขอintro
  • คนไม่รู้
    Guest
  • 27 มี.ค.2550,13:37น.
    อยากได้เพลง"ชู้รัก"ที่มันร้องว่า"ชั้นเป็นแค่ชู้รัก เป็นที่พักใจ ไม่ได้มากมาย ไม่ใช่ของจริงอย่าเขา"วายน็อทร้องเพลงนี้รึเปล่าก็ไม่รู้ - -"
  • bb
    Guest
  • 30 ต.ค.2550,06:15น.
     

    เรื่องขี้หมา
    Artist : y not 7

    เรื่องขี้หมา
    y not 7

    Intro : Am/Em/F/G(2times)
    G

    Am Em
    เจ็บจนได้ กับวันนี้
    F G
    ภูติผีตนใดกัน สิงให้เธอมันเปลี่ยนไป
    Am Em
    จบจนได้ อย่างปวดร้าว
    F G
    ไม่นึกว่าคนเรา ทิ้งขว้างกันได้ง่ายดาย
    Am Em
    หมดแรงสร้าง หมดแรงหวัง
    F G
    ไอ้ฉันมันจริงจัง ฉันก็มีแต่เสียใจ
    Am Em
    ขอบใจมาก ที่ทำฉัน
    F G
    ให้ทุกข์ทรมาน หวังว่าเธอคงสะใจ
    C Cmaj7 Am
    * แต่อย่าคิดว่าฉัน ไม่มีหนทางอื่น
    G F G
    ถึงใจมันขมขื่น แต่สักวันก็คงหาย
    C Cmaj7 Am
    แค่ผู้หญิงที่รักไม่จริง ทิ้งกันไป
    G F G
    ไม่ทำให้ถึงตาย เรื่องแค่นี้มันขี้หมา
    F G
    ** ถึงจะเจ็บสักเท่าไร ไม่มีหรอกน้ำตา

    Instru: Am(4times)

    Am Em
    อยู่มาได้ อยู่มาแล้ว
    F G
    ไม่เห็นต้องมีเธอ ฉันก็มีลมหายใจ
    Am Em
    อาจจะบ้า อาจจะเพี้ยน
    F G
    ก็เพราะเธอวนเวียน มาหลอกตามาหลอกใจ

    ( ซ้ำ *, *, ** , ** )

    Instru: Am/Em/F/G/(2times)
    G



  • รักเทอ
    Guest
  • 6 พ.ย.2550,13:23น.
    โดนใจคับเด็กแมกลอง
1

ขอเชิญร่วมแสดงความคิดเห็นครับ

คลิกที่รูป เพื่อแทรกรูปลงในข้อความ
  • Member :
    username
    password
  • Not a member :
    name
    email