Loading

เพลง เลี้ยงส่ง

โซลคูล

อัพโหลดคลิปเพลงนี้ที่คุณ ร้อง/เล่น ด้วยตัวคุณเอง ได้แล้ววันนี้
ระหว่างการทดสอบระบบหากพบข้อผิดพลาด กรุณาแจ้งที่นี่
เลี้ยงส่งให้ความปวดร้าวความเศร้าทำเราเจ็บ
เลี้ยงส่งให้เธอกับเค้า โว้ๆๆเย้ๆๆๆ
ใครมีเนื้อ หรอคอร์ดก้เอามาลงนะครับ


แล้วเดี๋ยวผมแกะโซโล่มาลงให้เอง แน่นอนครับ สัญญาลูกผู้ชายเลย
ส่งเพลงนี้ให้เพื่อน
วันที่โพสต์ : 21 ก.ค.2548,14:25น. 203.118.112.97
จำนวนผู้ชม : 385514 คน / แสดงความคิดเห็น : 179 ครั้ง
โพสต์โดย


จาก: b@((
เข้าร่วม: 9 ปีก่อน
เพลง: 0
โพสต์: 2
เพลงแนะนำ
เพลงฮิต
เลือกแสดงเฉพาะ :

  • 21 ก.ค.2548,20:24น.
    คือว่ารู้ไม่หมด 
  • 21 ก.ค.2548,20:38น.
    เธอไปไม่ลาสักคำ ไม่ทันได้ตั้งใจ 
    มันกินมันนอนไม่ได้ น้ำตาลยังขมปาก
    ทำคนรักกันให้เจ็บเกือบตาย ดังเสือที่มันหมดสิ้นลาย
    เจ็บมาจนถึงวันนี้
    เธอจะไม่รังเกียจกัน พาเขามาด้วยเลย
    มาคุยกันแบบเปิดเผย เรื่องเธอกับคนนั้น
    มีคำถามเดียวที่อยากจะถามว่าเขาสมควรแค่ไหนกัน
    เข้ามาแย่งเธอจากฉัน

    *นี่เราเจ้าเดิม ที่มันจะขอให้เธออย่าลืมน้ะ

    **เลี้ยงส่งให้ความปวดร้าวความเศร้าทำเอาเจ็บ
    เลี้ยงส่งให้เธอกับเราได้รักกันนานๆ
    ขอให้เธอโชคดีพ้นจากคนคนนี้ที่เธอไม่ต้องการ
    เช็คบิลที่ฉันซื้อความเสียใจฉันจะจ่ายเอง

    ทำไมหน้าเศร้าอย่างนั้น งานเลี้ยงต้องเลิกรา
    เรื่องเราไม่ใช่ปัญหา เพราะเธอยังมีเขา
    ไม่ควรเศร้าใจที่เลิกจะไป ก็ขอให้เธอได้รักกัน
    ให้นานกว่ารักกับฉัน
    */**/**
    เฮ้อ เฮอ ........

    คริๆให้ละกัน^^
  • 22 ก.ค.2548,09:18น.
    ใครมีแบบเต็มๆบ้างครับ
    ขอหน่อย SOLOด้วยก็ดีครับ
    ((ขอคอร์ดกีต้าร์))
  • 22 ก.ค.2548,12:49น.
    คอร์ด อันนี้ยังไม่ตรงอ่ะครับ  ลองไปดู อีกหน้านึง ผม แกะมาลง แล้วพร้อมกับ โซโล่ด้วยครับ
  • อิอิ
    Guest
  • 22 ก.ค.2548,19:42น.
    เพลงนี้มันร้องยังไงหรอ  ใครใจดีร้องให้เราฟังหน่อยสิ
  • อิอิ
    Guest
  • 22 ก.ค.2548,19:42น.
    เพลงนี้มันร้องยังไงหรอ  ใครใจดีร้องให้เราฟังหน่อยสิ
  • แฮ็ค THE Queen
    Guest
  • 22 ก.ค.2548,20:31น.
    โซคูล ชุดใหม่หรอคับ ไม่รู้เลยนะเนี่ยแล้วเพราะกว่าชุดเก่ามะคับแล้วฟังได้ที่เว็บไหนบอกหน่อยคับ    
  • 22 ก.ค.2548,12:46น.
    มาทำตามที่สัญญาไว้ครับผมมมม
    เพลง เลี้ยงส่งของโซคูลครับ พึงแกะ หมาดๆเลยเอามาลงดู ใครแกะได้เหมือนกว่าผมก็เอามาลงกันได้นะครับ
    เพราะก็ไม่ได้เก่งไรมากมาย แกะเท่าที่ได้ยิอ่ะครับอาจจะไม่ตรง

    By b(( Absolute มือกีต้าร์ แห่ง เบญจมราชาลัย 3 อิๆๆ คือ ผมอ่อนที่สุด ใน รร แล้วอ่ะคับ

    Intro

    E-----------------------------------------------------------------------------------------------------------------
    B------------------------------------------------------------------------------------------------------------------
    G-------------------------------------- 4-5-4----------------------------------------------------------------------
    D---6^--1-3--4-6-4-----6^-1-3-4-6------------1-3-4/6--4---------------------------------------------------------


    Solo

    E---------------------------------------------------9---8---9-9/11---11------------------
    B---------------------------------------------------9---8---9-9/11---11------------------
    G--------4--3-------------4--3-----------------------------------------------------------
    D---------------4----------------4------4------------------------------------------------
    A--4/6-------------4/6--------------6----------------------------------------------------

    E-----------------------------------------------------14^-14---------------------------- 14-------14------14------14--------
    B---------------14^-12-----------------------------------------14^-14--12-----12--14^-----14^-----14^-----14^------------
    G-----6^--4-------------------4----4/6--6^--6^--4-------------------------13-----------------------------------------------
    D-------------------------4/6----6-------------------------------------------------------------------------------------------
    A----------------------------------------------------------------------------------------------------------------------------


    E----------------------------------------------------------------------------------------------------------------------------------------14-----14---------14^-14----------
    B----14^-14^-14-12-14-14----14^--14^--14--12--12------------------------------------------12--11--11-12-----------11--12--14-14^------14^---14-12-------------------
    G-------------------------------------------------------------------------------------11--13--------------------13--11------------------------------------------------------
    D----------------------------------------------------------------9------9--11--11/13----------------------------------------------------------------------------------------
    A----------------------------------------------------------9/11-----11------------------------------------------------------------------------------------------------------
  • 22 ก.ค.2548,12:48น.
    แนะ นำให้ เล่นไปพร้อมกับเพลงนะครับเพระ tab ที่ผมเอามาลง
    ไม่ได้พิมพ์ในนี้อ่ะครับ พอเอามาลงแล้ว มันเลยไม่ตรง แต่ คีย์ตรงแน่นอนครับ
  • 22 ก.ค.2548,13:09น.
    เข้ามาแล้ว ก็อย่าเอาแต่สูบ ดิ่คับ mem กันบ้าง
    แสดงความคิดเห็นกันบ้างก็ไม่มีใครด่าหรอกครับ
    ท่อนไหนมีปัญหาก็ ถามได้ครับ
  • ...
    Guest
  • 22 ก.ค.2548,15:16น.
    เพลง เลี้ยงส่ง

    Am G F G
    เธอไปไม่ลาสักคำ ไม่ทันได้เตรียมใจ
    Am G F G
    มันกินมันนอนไม่ได้ น้ำตาลยังขมปาก
    Am G F G F
    ทำคนรักกันให้เจ็บเกือบตาย ดังเสือที่มันหมดสิ้นลาย
    E7
    เจ็บมาจนถึงวันนี้

    Am G F G
    เธอไม่รังเกียจกัน พาเขามาด้วยเลย
    Am G F G
    มาคุยกันแบบเปิดเผย เรื่องเธอกับคนนั้น
    Am G F G F
    มีคำถามเดียวที่อยากจะถามว่าเขาสมควรแค่ไหนกัน
    E
    เข้ามาแย่งเธอจากฉัน
    F E
    *ที่เก่าเจ้าเดิม ให้มาเจอขอให้เธออย่าลืมนะ
    F G C Am
    **เลี้ยงส่งให้ความปวดร้าวความเศร้าทำเอาเจ็บ
    F G C E
    เลี้ยงส่งให้เธอกับเขาได้รักกันนานๆ
    F G C Am D
    ขอให้เธอโชคดีพ้นจากคนคนนี้ที่เธอไม่ต้องการ
    F G Am
    เช็คบิลที่ฉันซื้อความเสียใจฉันจะจ่ายเอง
    Am G F G
    ทำไมหน้าเศร้าอย่างนั้น งานเลี้ยงต้องเลิกรา
    Am G F G
    เรื่องเราไม่ใช่ปัญหา เพราะเธอยังมีเขา
    Am G F G F
    ไม่ควรเศร้าใจถ้าเลิกจะไป ก็ขอให้เธอได้รักกัน
    E
    ให้นานกว่ารักกับฉัน
    */**/**
    เฮ้อ เฮอ ........

    มั้งนะคับ มั่วๆเอา
  • b@((
    Guest
  • 22 ก.ค.2548,15:30น.
    เอาใหม่ครับมันเรียงกันผิด

    By b(( Absolute มือกีต้าร์ แห่ง เบญจมราชาลัย 3 อิๆๆ คือ ผมอ่อนที่สุด ใน รร แล้วอ่ะคับ

    Intro

    E-----------------------------------------------------------------------------------------------------------------
    B------------------------------------------------------------------------------------------------------------------
    G-------------------------------------- 4-5-4----------------------------------------------------------------------
    D---6^--1-3--4-6-4-----6^-1-3-4-6------------1-3-4/6--4---------------------------------------------------------


    Solo

    E---------------------------------------------------9---8---9-9/11---11------------------
    B---------------------------------------------------9---8---9-9/11---11------------------
    G--------4--3-------------4--3-----------------------------------------------------------
    D---------------4----------------4------4------------------------------------------------
    A--4/6-------------4/6--------------6----------------------------------------------------

    E----------------------------------------------------- 14^-14---------------------------- 14-------14------14------14--------
    B---------------14^-12---------------------------------------- -14^-14--12-----12--14^-----14^-----14^-----14^------------
    G-----6^--4-------------------4----4/6--6^--6^--4-------------------------13-----------------------------------------------
    D-------------------------4/6----6-------------------------------------------------------------------------------------------
    A----------------------------------------------------------------------------------------------------------------------------


    E----------------------------------------------------------------------------------------------------------------------------------------14-----14---------14^-14----------
    B----14^-14^-14-12-14-14----14^--14^--14--12--12------------------------------------------12--11--11-12-----------11--12--14-14^------14^---14-12-------------------
    G-------------------------------------------------------------------------------------11--13--------------------13--11------------------------------------------------------
    D-------------------------------------------------------------------------------------- 9------9--11--11/13----------------------------------------------------------------------------------------
    A--------------------------------------------------------- --------------------9/11-----11------------------------------------------------------------------------------------------------------
  • โซลู
    Guest
  • 22 ก.ค.2548,15:42น.
    ผมว่าเพลงมันลาวๆอ่ะ 
    คอมเม้นเฉยๆไม่ได้ว่า คับพ้ม
  • b@((
    Guest
  • 22 ก.ค.2548,15:43น.
    เอาใหม่ครับมันเรียงกันผิด คราวนี้ ชัวครับ ไม่มีมั่วแน่นอน ต้อง ขอโทดจริง เพราะ ตอนที่ผมเขียนแทบ ผมไม่ได้เขียนในนี้ พอเอามาลง แล้วมันเลย มั่ว

    By b(( Absolute มือกีต้าร์ แห่ง เบญจมราชาลัย 3 อิๆๆ คือ ผมอ่อนที่สุด ใน รร แล้วอ่ะคับ

    Intro

    E-----------------------------------------------------------------------------------------------------------------
    B------------------------------------------------------------------------------------------------------------------
    G-------------------------------------- 4-5-4----------------------------------------------------------------------
    D---6^--1-3--4-6-4-----6^-1-3-4-6------------1-3-4/6--4---------------------------------------------------------


    Solo

    E---------------------------------------------------9---8---9-9/11---11------------------
    B---------------------------------------------------9---8---9-9/11---11------------------
    G--------4--3-------------4--3-----------------------------------------------------------
    D---------------4----------------4------4------------------------------------------------
    A--4/6-------------4/6--------------6----------------------------------------------------

    E----------------------------------------------------- 14^-14---------------------------- 14-------14------14------14--------
    B---------------14^-12---------------------------------------- -14^-14--12-----12--14^-----14^-----14^-----14^------------
    G-----6^--4-------------------4----4/6--6^--6^--4-------------------------13-----------------------------------------------
    D-------------------------4/6----6-------------------------------------------------------------------------------------------
    A----------------------------------------------------------------------------------------------------------------------------


    E-------------------------------------------------------------------------------------------------------------------------------------------------------------------------------------14-----14---------14^-14----------
    B----14^-14^-14-12-14-14----14^--14^--14--12--12-------------------------------------------------------------12--11--11-12-----------11--12--14-14^------14^------14-12-------------------
    G-----------------------------------------------------------------------------------------------------------------------11--13--------------------13--11------------------------------------------------------
    D-------------------------------------------------------------------------------------- 9------9--11--11/13----------------------------------------------------------------------------------------
    A--------------------------------------------------------- --------------------9/11-----11------------------------------------------------------------------------------------------------------
  • 24 ก.ค.2548,10:15น.
    เครื่องหมาย ^ หมายถึงอาไรหรอครับ
    9---8---9-9/11---11------------------
    9---8---9-9/11---11------------------

    แล้วแบบนี้กดยังไงหรอครับ

    เพิ่งหัดเล่นกีต้าอ่ะครับ
  • 24 ก.ค.2548,12:05น.
    ^ หมายถึง ครึ่งจังหวะอ่ะครับ
  • 24 ก.ค.2548,12:28น.
    ^  หมายถึงดันสายขึ้นครับ ส่วนตัวเลข 
    9---8---9-9/11---11------------------
    9---8---9-9/11---11------------------
    ก็คือ ดีสองสายพร้อมกันครับผม
  • 24 ก.ค.2548,13:59น.
    ไอที่บอกเพลงมัน ลาวๆ  นี้เค้าไม่ได้เลียก ว่า   ว่า  ใช่มั้ยครับ
    ผมก็ไม่ได้ว่าไรหรอกครับ สงสัย เพราะ ผมเองก็ไม่ได้ชอบ โซคูล หรอกครับ
    คืออยาก แกะ เฉย
  • มิวSOCOL
    Guest
  • 25 ก.ค.2548,13:45น.
    ผมชอบ ผมรักโซคูล ตั้งแต่ ชุดแรกแย้ว เด็กลำปาง มิว ครับ
  • มิวSOCOL
    Guest
  • 25 ก.ค.2548,13:47น.
    สุดยอดอยากฟังจังแผ่นเต็มง่ะ จะออกเมื่อไหร่ใครรู้บ้าง ง่ะ บอกผมที่ 01-0235680
  • ผู้รู้
    Guest
  • 26 ก.ค.2548,23:10น.
    รบกวนช่วยสอนtab หน่อยจิครับ เอาเเต่ละเเบบเลย เช่น 
    E--------------------------------------------------------------------------------------------------------------
    B--------------------------------------------------------------------------------------------------------------
    G-------------------------------------- 4-5-4-----------------------------------------------------------
    D---6^--1-3--4-6-4-----6^-1-3-4-6------------1-3-4/6--4------------------------------------------

    เอาแค่นี้ก่อนครับ ว่ามันเล่นยังไงอ่า
  • 27 ก.ค.2548,00:28น.
    เพลง เลี้ยงส่ง        
    So Cool : So Hot

    Intro: G#m/F#/E/F#/E (2times) E/F#/B/G#m/E/F#/B
    G#m F# E F#
    เธอไปไม่ลาสักคำ ไม่ทันได้เตรียมใจ
    G#m F# E F#
    มันกินมันนอนไม่ได้ น้ำตาลยังขมปาก
    G#m F# E
    ทำคนรักกันให้เจ็บเกือบตาย
    F# E F#
    ดังเสือที่มันหมดสิ้นลาย เจ็บมาจนถึงวันนี้
    G#m F# E F#
    ถ้าเธอไม่รังเกียจกัน พาเค้ามาด้วยเลย
    G#m F# E F#
    มาคุยกันแบบเปิดเผย เรื่องเธอกับคนนั้น
    G#m F# E F#
    มีคำถามเดียวที่อยากจะถาม ว่าเค้าสมควรแค่ไหนกัน
    E F# E F#
    เข้ามาแย่งเธอจากฉัน ที่เก่าเจ้าเดิม ให้มาเจอ ขอให้เธออย่าลืมนะ
    E F# B G#m
    * เลี้ยงส่งให้ความปวดร้าว ความเศร้าทำเอาเจ็บ
    E F# B G#m E F# B
    เลี้ยงส่งให้เธอกับเขา ได้รักกันนานๆ ขอให้เธอโชคดีพ้นจากคน
    G#m E F#
    คนนี้ที่เธอไม่ต้องการ เช็คบินที่ฉันซื้อความเสียใจฉันจะจ่ายเอง

    Intro:G#m/E/F#/G#m
    G#m F# E F#
    ทำไมหน้าเศร้าอย่างนั้น งานเลี้ยงต้องเลิกรา
    G#m F# E F#
    เรื่องเราไม่ใช่ปัญหา เพราะเธอยังมีเค้า
    G#m F# E F# E
    ไม่ควรเศร้าใจถ้าเลือกจะไป ก็ขอให้เธอได้รักกัน
    F# E F#
    ให้นานกว่ารักกับฉัน ที่เก่าเจ้าเดิม ให้มาเจอ ขอให้เธออย่าลืมนะ

    ( ซ้ำ * )

    Solo:G#m/E/F#/G#m

    E/F#/B/G#m ( 3times ) E / F#

    (ซ้ำ * )
    E/F#/G/E/F#/B
    เฮ้อ .... โว ..... โฮ ..........โว ....
  • Hunsad
    Guest
  • 28 ก.ค.2548,15:14น.
    มาถึง into เกะ ก็ผิดแล้วครับ
  • 28 ก.ค.2548,16:41น.
    มันขึ้น G#m ผมไปดูผิดเป็น Gm โทดทีๆ
  • 28 ก.ค.2548,19:34น.
    ขอบใจ คุณ แนนซาโน ที่แก้ให้ครับ
  • toon[Fx] SaLam
    Guest
  • 31 ก.ค.2548,12:28น.
    สุดยอดครับเพลงนี้ เเต่ว่าTab 100% ปะครับ จะได้เอาไปหัดง่า
  • 31 ก.ค.2548,19:56น.
    ก็ต้องลองเล่นดูอ่ะครับ ผมไม่เก่งเท่าไหร่
  • toon[Fx] SaLam
    Guest
  • 2 ส.ค.2548,20:10น.
    ครับๆจะพยายามครับๆๆ

ขอเชิญร่วมแสดงความคิดเห็นครับ

คลิกที่รูป เพื่อแทรกรูปลงในข้อความ
  • Member :
    username
    password
  • Not a member :
    name
    email