Loading

ŧ ˧ Դ֧

ʡ

ѾŴԻŧس ͧ/ µǤسͧ ѹ
ҧ÷ͺкҡͼԴҴ س駷
˧ Դ֧  Sek LoSo

Intro: C Fmaj9 Fmaj9 (4times)

C Dm F
ͨҡ Ѻ㨷ѹҧ
C Dm F G
з˧ ѺǴ ҧ
C Em F C
ѧѡ ѧѡ ѹѡԹ
Dm Em F G
ҡ͡ ô 㨩ѹ
C Dm Em Am
ѡ ǧ ·өѹŧ᷺
Dm Em F G
ԧ ѹ §͡..ѹ

Instru: C Fmaj9 Fmaj9 (2times) G G

C Em Am F G C Em Am F G
* (ѹѧ..) Դ֧ͨǹкҵ Դ֧
C Em Am F G F G
Դ֧͡Թ͹ ʹǧôѺ (ѧ)

Instru: C Em Am G F Em Dm C Bb G G G

( *,*)

Instru: C Fmaj9 Fmaj9 (4times)

C Dm F
ͨҡ Ѻ㨷ѹҧ
C Dm F G
з˧ ѺǴ ҧ
C Em F C
ѧѡ ѧѡ ѹѡԹ
Dm Em F G C
ҡ͡ ô 㨩ѹ
ǹŴ Full Song
*424243072276584
*424243072276584
ǹŴ Truetone
*424218072276584
*424218072276584
*424218072276584
ǹŴ Poly
*424214072276584
*424214072276584
*424214072276584
ǹŴ Mono
*424211072276584
*424211072276584
*424211072276584
* ѵҤҺԡôǹŴ Fullsong, Truetone, Poly, Mono : 35 ҷ/ŧ
ŧ͹
ѹʵ : 13 ..2549,01:29. 124.121.187.227
ӹǹ : 257215 / ʴԴ : 108
ʵ


ҡ: ????
: 8 ա͹
ŧ: 0
ʵ: 1
ŧй
ŧԵ
͡ʴ੾ :

  • OMAN
    Guest
  • 20 ..2556,12:48. 124.122.25.168
    Intro: C Fmaj9 Fmaj9 (4times)

    C Dm F
    ͨҡ Ѻ㨷ѹҧ
    C Dm F G
    з˧ ѺǴ ҧ
    C Em F C
    ѧѡ ѧѡ ѹѡԹ
    Dm Em F G
    ҡ͡ ô 㨩ѹ
    C Dm Em Am
    ѡ ǧ ·өѹŧ᷺
    Dm Em F G
    ԧ ѹ §͡..ѹ

    Instru: C Fmaj9 Fmaj9 (2times) G G

    C Em Am F G C Em Am F G
    * (ѹѧ..) Դ֧ͨǹкҵ Դ֧
    C Em Am F G F G
    Դ֧͡Թ͹ ʹǧôѺ (ѧ)

    Instru: C Em Am G F Em Dm C Bb G G G

    ( *,*)

    Instru: C Fmaj9 Fmaj9 (4times)

    C Dm F
    ͨҡ Ѻ㨷ѹҧ
    C Dm F G
    з˧ ѺǴ ҧ
    C Em F C
    ѧѡ ѧѡ ѹѡԹ
    Dm Em F G C
    ҡ͡ ô 㨩ѹ
  • OMAN
    Guest
  • 20 ..2556,12:50. 124.122.25.168
        Intro: C Fmaj9 Fmaj9 (4times)

    C Dm F
    ͨҡ Ѻ㨷ѹҧ
    C Dm F G
    з˧ ѺǴ ҧ
    C Em F C
    ѧѡ ѧѡ ѹѡԹ
    Dm Em F G
    ҡ͡ ô 㨩ѹ
    C Dm Em Am
    ѡ ǧ ·өѹŧ᷺
    Dm Em F G
    ԧ ѹ §͡..ѹ

    Instru: C Fmaj9 Fmaj9 (2times) G G

    C Em Am F G C Em Am F G
    * (ѹѧ..) Դ֧ͨǹкҵ Դ֧
    C Em Am F G F G
    Դ֧͡Թ͹ ʹǧôѺ (ѧ)

    Instru: C Em Am G F Em Dm C Bb G G G
    ( *,*)

    C Dm F
    ͨҡ Ѻ㨷ѹҧ
    C Dm F G
    з˧ ѺǴ ҧ
    C Em F C
    ѧѡ ѧѡ ѹѡԹ
    Dm Em F G C
    ҡ͡ ô 㨩ѹ
  • 13 ..2549,02:09.
    ͹ Intro Ѻ

    C Fmaj9 Fmaj9
    1.-------------------------0------------------------3p0--------------------------3p0------------------
    2.------------------1h3-----3p1-------------1----------1----1------------1----------1-----1-------
    3.---------------0-------------------------2------------------2-----------2-----------------2----------
    4.----------2-------------------------3-------------------------------3----------------------------------
    5.-----3--------------------------------------------------------------------------------------------------
    6.---------------------------------------------------------------------------------------------------------
  • 13 ..2549,02:20.
    ŧͧ¡յŴŧҤ§ФѺ (Eb)
  • 13 ..2549,02:22.
    §ѹеçѺ   ʡ 蹾ʹ
  • 13 ..2549,02:25.
    ͹  Ҽ ѹѧҽҡѺ ʴԴ繴¹ФѺ
    ͺسѺ
  • ѧ
    Guest
  • 13 ..2549,15:07.
    ͹  ˹ Ŵ mp3 ¡ѹẹ¤Ѻ
    ͹ŻԹѧʹ͹ ô¡ѹ˹ ͹ŧѧ

  • Guest
  • 14 ..2549,18:06.
    ѡ
  • ҹ ѹ
    Guest
  • 15 ..2549,19:46.
    ˧ Դ֧  
    ŻԹ : ʡ
    ˧ Դ֧ Sek LoSo

    Intro: C Fmaj9 Fmaj9 (4times)

    C Dm F
    ͨҡ Ѻ㨷ѹҧ
    C Dm F G
    з˧ ѺǴ ҧ
    C Em F C
    ѧѡ ѧѡ ѹѡԹ
    Dm Em F G
    ҡ͡ ô 㨩ѹ
    C Dm Em Am
    ѡ ǧ ·өѹŧ᷺
    Dm Em F G
    ԧ ѹ §͡..ѹ

    Instru: C Fmaj9 Fmaj9 (2times) G G

    C Em Am F G C Em Am F G
    * (ѹѧ..) Դ֧ͨǹкҵ Դ֧
    C Em Am F G F G
    Դ֧͡Թ͹ ʹǧôѺ (ѧ)

    Instru: C Em Am G F Em Dm C Bb G G G

    ( *,*)

    Instru: C Fmaj9 Fmaj9 (4times)

    C Dm F
    ͨҡ Ѻ㨷ѹҧ
    C Dm F G
    з˧ ѺǴ ҧ
    C Em F C
    ѧѡ ѧѡ ѹѡԹ
    Dm Em F G C
    ҡ͡ ô 㨩ѹ


    100 %
  • Mayday
    Guest
  • 17 ..2549,04:10.
    ˹¤ѺѴ蹡յ໧
  • ع
    Guest
  • 17 ..2549,16:41.
    ŧ¹ФѺ bunta_a86hotmail.com  

  • Guest
  • 20 ..2549,07:13.
    ͹ solo Ѻ  Դ١ªд¹ФѺ

    C Em Am G F Em Dm
    1.--------------------------------------------------------------------------------------------------------
    2.--------------------------------------------------------------------------------------------------------
    3.----------------12~9----9~7---7~5---5---5---5~9---7~5--5----4h5p4----4--4~7-----
    4.--------------------------------------------------------------------------------------------------------
    5.--------------------------------------------------------------------------------------------------------
    6.--------------------------------------------------------------------------------------------------------
    ѹѧ...
    C Bb G G G
    1.--------------------------------------------------------------------------------------------------------
    2.--------------------------------------------------------------------------------------------------------
    3.-----7~5--5------------------------------------------------------------------------------------------
    4.----------------------8---7h8p7----5~~17--17--17----5~~17--17--17----17--17------
    5.--------------------------------------------------------------------------------------------------------
    6.--------------------------------------------------------------------------------------------------------

    1.--------------------------------------------------------------------------------------------------------
    2.--------------------------------------------------------------------------------------------------------
    3.--------------------------------------------------------------------------------------------------------
    4.---------17~14-----14~12--12--12~14-------------------------------------------------------
    5.--------------------------------------------------------------------------------------------------------
    6.--------------------------------------------------------------------------------------------------------

  • Guest
  • 21 ..2549,01:32.
    Intro: C Fmaj9 Fmaj9 (4times)

    C Dm F
    ͨҡ Ѻ㨷ѹҧ
    C Dm F G
    з˧ ѺǴ ҧ
    C Em F C
    ѧѡ ѧѡ ѹѡԹ
    Dm Em F G
    ҡ͡ ô 㨩ѹ
    C Dm Em Am
    ѡ ǧ ·өѹŧ᷺
    Dm Em F G
    ԧ ѹ §͡..ѹ

    Instru: C Fmaj9 Fmaj9 (2times) G G

    C Em Am F G C Em Am F G
    * (ѹѧ..) Դ֧ͨǹкҵ Դ֧
    C Em Am F G F G
    Դ֧͡Թ͹ ʹǧôѺ (ѧ)

    Instru: C Em Am G F Em Dm C Bb G G G

    ( *,*)

    Instru: C Fmaj9 Fmaj9 (4times)

    C Dm F
    ͨҡ Ѻ㨷ѹҧ
    C Dm F G
    з˧ ѺǴ ҧ
    C Em F C
    ѧѡ ѧѡ ѹѡԹ
    Dm Em F G C
    ҡ͡ ô 㨩ѹ



    555+555+
  • Takayochi Tesi
    Guest
  • 21 ..2549,17:01.
    ŧشʹСѺ͡ѡѡԧҧ          
    099995284
  • ѷ03
    Guest
  • 21 ..2549,23:07.
    ...໹ͧҹ   
  • b+mai
    Guest
  • 23 ..2549,02:10.
    ͺسҡѺ/зº͡   ըѧ ...............5555555555555   
  • +++
    Guest
  • 23 ..2549,02:16.
    ҡͧ ¤Ѻ䧴ըФѧ䧤Ѻ e-mail ˹ФѺ
    С
    **ͧ Ѥ蹴ǹ ǧҴ .طҤ Ѻ
    (ͤѡ+ͺ§ŧԧ ͺسѺ)
    ҽ֡ էҹǧѺ ǹ
    ʹҷ mai_foodexhotmail.com

  • Guest
  • 24 ..2549,19:59.
    蹡յѺʡ  ʡҡ¤Ѻ  شʹ  
  • ֧
    Guest
  • 27 ..2549,20:01.
    ʤѺöŧ90%仨ҡ鹩Ѻ030346372äѺͧҤФѺطҤ͹ѹҪ  촤Ѻͧҷ ǧҵͧһʺóҡ   
  • ͧ ʡ
    Guest
  • 28 ..2549,18:28.
    դѺ  觡յ ա
  • M
    Guest
  • 30 ..2549,17:57.
    ŧѧ䧤Ѻ º͡դѺ ʹ Όѧ
  • iboom@thaimail.com
    Guest
  • 1 ..2549,03:20.
               C                                Dm                    F                          C
    1-------------------0--------------------1-------------------1----------------------0------------
    2--------------2-------2--2---------3-----2--2--------2-----2--2----------2------2--2------
    3------------0--0-------0---------2--2-----3--------1---1----1----------0---0-----0--------
    4--------------------------------0-----------------------------------------------------------------
    5------3------------------------------------------------------------------3-----------------------
    6-----------------------------------------------------1--------------------------------------------

    ***Ẻ (ͧ¹ ŧ)***
  • iboom@thaimail.com
    Guest
  • 1 ..2549,03:23.
    ********͡ҷ͡  ͹͹ŧ**********
  • Ѵ
    Guest
  • 1 ..2549,07:18.
    ҡŧ9.40ФѺѺҧҡҡ ͺسǧ˹ҹФѺ  
    ((յ))
  • 5/1 ppy.
    Guest
  • 5 ..2549,04:51.
    ŧҴ ⴹҡ ŧá ⴹ͹ŧԧ 
  • ҹ ( Թ )
    Guest
  • 8 ..2549,02:59.
    ????觹  
    ͹˹
  • ҹ
    Guest
  • 11 ..2549,22:13.
    Ҩҡǻ˹ôԵ˹¡չФѺ

  • bob
    Guest
  • 17 ..2549,21:23.
           

  • Guest
  • 18 ..2549,03:43.
    ͺҡѺ
  • Ѥ
    Guest
  • 18 ..2549,22:05.
           C              Dm             F
    ͨҡ Ѻ㨷ѹҧ
    C Dm F G
    з˧ ѺǴ ҧ
    C Em F C
    ѧѡ ѧѡ ѹѡԹ
    Dm Em F G
    ҡ͡ ô 㨩ѹ
    C Dm Em Am
    ѡ ǧ ·өѹŧ᷺
    Dm Em F G
    ԧ ѹ §͡..ѹ

    Instru: C Fmaj9 Fmaj9 (2times) G G

    C Em Am F G C Em Am F G
    * (ѹѧ..) Դ֧ͨǹкҵ Դ֧
    C Em Am F G F G
    Դ֧͡Թ͹ ʹǧôѺ (ѧ)

    Instru: C Em Am G F Em Dm C Bb G G G

    ( *,*)

    Instru: C Fmaj9 Fmaj9 (4times)

    C Dm F
    ͨҡ Ѻ㨷ѹҧ
    C Dm F G
    з˧ ѺǴ ҧ
    C Em F C
    ѧѡ ѧѡ ѹѡԹ
    Dm Em F G C
    ҡ͡ ô 㨩ѹ



ԭʴԴ繤Ѻ

ԡٻ áٻŧ㹢ͤ
  • Member :
    username
    password
  • Not a member :
    name
    email