Loading

เพลง แค่นั้นเอง

แท็กซี่ (TAXI)

อัพโหลดคลิปเพลงนี้ที่คุณ ร้อง/เล่น ด้วยตัวคุณเอง ได้แล้ววันนี้
ระหว่างการทดสอบระบบหากพบข้อผิดพลาด กรุณาแจ้งที่นี่
Print
                                                                          แค่นั้นเอง
ร้องโดย แท็กซี่ ( TAXI )
แค่นั้นเอง แค่ทักทาย

ไม่มีหอม ไม่มียิ้ม ไม่มีว่าไง

ไม่เจอะตั้งนาน กว่าจะพบกัน

ฉันก็นึกว่าวันนี้ เธอจะดีใจ

* ฉันก็เฝ้าแต่รอ แต่วันนี้

แล้วดูเธอเข้าซิ มาแบบไหน

** เธอทำไมมากลายเป็นแบบนี้ เคยเป็นที่หนึ่ง

อุตส่าห์คิดถึง คิดถึง คิดถึง คิดถึงจะตาย

เธอมากลายเป็นใครก็ไม่รู้ ที่ไม่เคยเหมือนเดิม

และคนอย่างฉัน จะอยู่ได้ไง

ถ้ามันมีความหมายว่ารัก

หรือมีความหมาย ว่าฉันน่ะรักเธอก็ดี

หรือว่าถ้า+++คำ คำนี้

มันมีอำนาจสั่งคน ให้หยุดกระทำไม่ดี

ก็คงมี คงมีแต่คนรักกัน

ทุกๆวัน อยากฟังแต่คำๆนี้ เย...

* อะไรอย่างเงี้ยะ ต้องใช้มันบ่อยๆ

อะไรอย่างเงี้ยะ อะไรอย่างเงี้ยะ

พูดกันไป พูดกันไป

** อะไรอย่างเงี้ยะ ต้องใช้มันบ่อยๆ

อะไรอย่างเงี้ยะ อะไรอย่างเงี้ยะ

พูดไปเลย พูดไปเลย ( เย... )( นะครับ )

( ซ้ำ *,** )

http://www.musicatm.com/thai/คอร์ดเพลง-แค่นั้นเอง-แท็กซี่-(TAXI)-3599.html
ดาวน์โหลด Full Song
กด *424243018476584
กด *424243018476584
ดาวน์โหลด Truetone
กด *424218018476584
กด *424218018476584
กด *424218018476584
ดาวน์โหลด Poly
กด *424214018476584
กด *424214018476584
กด *424214018476584
ดาวน์โหลด Mono
กด *424211018476584
กด *424211018476584
กด *424211018476584
* อัตราค่าบริการดาวน์โหลด Fullsong, Truetone, Poly, Mono : 35 บาท/เพลง
ส่งเพลงนี้ให้เพื่อน
วันที่โพสต์ : 9 ก.พ.2548,20:20น.
จำนวนผู้ชม : 80630 คน / แสดงความคิดเห็น : 45 ครั้ง
โพสต์โดย


จาก: ไหม
Guest
เพลงแนะนำ
เพลงฮิต
เลือกแสดงเฉพาะ :

  • สาคูล
    Guest
  • 10 ก.พ.2548,19:44น.
    ขอtabหน่อยก๊าบ     
    ((ขอคอร์ดกีต้าร์))
  • อิอิ
    Guest
  • 12 ก.พ.2548,18:47น.
    อยากได้ tab ก้าบ


  • พี่ กบ
    Guest
  • 12 ก.พ.2548,18:47น.
    อยากได้ tab ก้าบ ขอtab หน่อยอยากได้มากเลย
  • แพ๊ะก็ได้นะ อิอิ
    Guest
  • 12 ก.พ.2548,18:48น.
    อยากได้ tabbbbbbbbbbbbb ใครเก่ง แกะไห้ที
  • คนนั้นอะ
    Guest
  • 12 ก.พ.2548,18:49น.
    อยากได้ tab ก้าบ
  • คนนี้
    Guest
  • 12 ก.พ.2548,18:50น.
    อยากได้ tab ก้าบ
  • คนโน้น
    Guest
  • 12 ก.พ.2548,18:52น.
    อยากได้ tab มากเลยเพลงนี้โดนใจสุดๆๆๆ
  • คนที่เท่าไหร่
    Guest
  • 12 ก.พ.2548,18:55น.
    อยากได้ tabbbbbbbbbb
  • .......
    Guest
  • 12 ก.พ.2548,19:00น.
    tabbbbbbbbbbbbbbbbbbbbbbbbbหน่อยจ้า
  • หดกหด
    Guest
  • 12 ก.พ.2548,19:15น.
    อยากได้ tab ก้าบ
  • --_--
    Guest
  • 13 ก.พ.2548,20:49น.
    tabbbbbbbbbbbbbbbbbbbbbbbbbหน่อยจ้า
  • อยาได้tab
    Guest
  • 13 ก.พ.2548,20:49น.
    -ขอtabหน่อยครับอยากได้มากๆๆๆเลยใครเก่งช่วยหน่อย


  • sfdsf
    Guest
  • 16 ก.พ.2548,17:04น.
    ขอtabหน่อยครับอยากได้มากๆๆๆเลยใครเก่งช่วยหน่อย
  • Annoymous guitar professional
    Guest
  • 17 ก.พ.2548,13:53น.
    If you want a right key for this song, move all the chords down 1note (for example: G -->F#, Am-->G#m, Bm-->Bbm)

    :D
  • 1532693
    Guest
  • 19 ก.พ.2548,21:21น.
    ขอtabหน่อยครับอยากได้มากๆๆๆเลยใครเก่งช่วยหน่อย


  • ไอซ์
    Guest
  • 21 ก.พ.2548,21:45น.
    แค่นั้นเอง   แค่ทักทาย
    ไม่มีหอม ไม่มียิ้ม ไม่มีว่าไง
    ไม่เจอะตั้งนาน กว่าจะพบกัน
    ฉันก็นึกว่าวันนี้ เธอจะดีใจ

    * ฉันก็เฝ้าแต่รอ แต่วันนี้
    แล้วดูเธอเข้าซิ มาแบบไหน

    ** เธอทำไมมากลายเป็นแบบนี้ เคยเป็นที่หนึ่ง
    อุตส่าห์คิดถึง คิดถึง คิดถึง คิดถึงจะตาย

    ** เธอมากลายเป็นใครก็ไม่รู้ ที่ไม่เคยเหมือนเดิม
    และคนอย่างฉัน จะอยู่ได้ไง

    นั่งนับเดือน นั่งนับปี
    เธอไม่รู้ เธอไม่ชี้ เหมือนไปกิ๊กใคร
    อยากกลับบ้านเลย ไม่ไหวเลย
    เหมือนไม่รัก เหมือนไม่รัก ดูไม่มีใจ

    (* ** ***)
    (* ** ***)
    ดูเธอไม่เหมือนเดิม
    D
    และคนอย่างฉันจะอยู่ได้ไง
  • ๛~๑*DajimzA*๑~๛
    Guest
  • 1 มี.ค.2548,16:13น.
    ขอยืมตังค์หน่อยคร้าบบบบ
  • %%%%%%%
    Guest
  • 6 มี.ค.2548,10:52น.
    ผมไม่มีให้หรอกตังค์นะ
  • ขขขขขขขขขขขขข
    Guest
  • 14 มี.ค.2548,16:59น.
    อยากมีกิ๊กครับ         
  • งุงิ
    Guest
  • 20 มี.ค.2548,11:40น.
    จาอาววtab งิงิ 

    คัยเก่งจัดTabหน่อยจิ อิอิ
  • กบ
    Guest
  • 29 มี.ค.2548,23:51น.
    เพลงนี้ ถ้าใส่ b ทุกตัว ก็จะโซโล่เข้าน่ะจ๊ะ 
  • TopGp
    Guest
  • 30 มี.ค.2548,19:45น.
    inTroนะคับจาเล่นเปงHamonic ช่อง 12
    แล้วถ้าแกะได้แล้วบางช่องอาจจาปอดแต่ถ้าเป็นกีต้าไฟฟ้าHamonicจาเล่นได้ทุกช่องคับลองใช้สเกล
    Hamonicแกะดูนะ

    1:------------------------------------------------------------------------------------12h-----------
    2:-----12h-------------------------------12h-------12h------------------------------- 8h------
    3:---------12h---14h--------------12h------12h----12h----14h------------------------------
    4:------------------------12h--12h---------------------------------12h--12h-------------------
    5:----------------------------------------------------------------------------------------------------
    6:-----------------------------------------------------------------------------------------------------
  • BaS
    Guest
  • 23 เม.ย.2548,13:56น.
    Intro เพลงนี้จะเล่นเป็นฮาโมนิคนะครับ ใช้นิ้วแตะบริเวณเหล็กกั้นเฟรทนะครับ
    2----------12h-------------------------------------------------------12h--------------
    3------------------12h-------------------------------------------------------12h------
    4--------------------------7h-----12h---------12h------7h---------------------------------
    ลองดูครับ เสียงเพราะดีครับ
  • 78
    Guest
  • 30 ม.ค.2550,19:44น.




  • โมโห
    Guest
  • 6 ก.พ.2550,16:47น.
    ไอ้บ้า............................................................................................
  • Golf
    Guest
  • 25 ก.ค.2550,19:19น.

    solo แกะครั้งแรกน้าเนี่ย
    2------19-18-----------------------------------------
    3------------------18-------------------------------- เล่น2รอบ
    4-----------------------18----------------------------


    แล้วก็
    2----------19-18-------------------------------------
    3----------------------20--18----20-20^----18h2018
  • golf & arm
    Guest
  • 25 ก.ค.2550,19:30น.
    gosolo แกะครั้งแรกน้าเนี่ย
    2------19-18-----------------------------------------
    3------------------18-------------------------------- เล่น2รอบ
    4-----------------------18----------------------------


    แล้วก็
    2----------19-18-------------------------------------
    3----------------------20--18----20-20^----18h2018
  • มือกีต้านครอุบล.
    Guest
  • 22 ส.ค.2550,10:13น.
    ,ม่วนดีๆ
  • ดิ่ง
    Guest
  • 1 พ.ย.2550,07:21น.
    เออ มันดูยังไงคับผมไม่เคยดูอะแบบนี้
  • ดิ่ง ผู้ไม่เอาไหน
    Guest
  • 1 พ.ย.2550,07:26น.
    ผมอยู่ตลาดพลูไครช่วยบอกผมทีว่ามันดูยังไงผมอยากดูเป็นบ้างอะคับ ผมซื้อโปงมาตัวกะจะเล่นให้เทพๆหน่อย ยืมของคนอื่นมานานและ ช่วยผมที ดิ่งตลาดพลูกรุงเทพมหานคร 0891300897ยิงมาเดียวโทรไปหาเองขอบคุณไว้เลยนะคับ

ขอเชิญร่วมแสดงความคิดเห็นครับ

คลิกที่รูป เพื่อแทรกรูปลงในข้อความ
  • Member :
    username
    password
  • Not a member :
    name
    email