Loading

เพลง แค่หลับตา

บอดี้สแลม

อัพโหลดคลิปเพลงนี้ที่คุณ ร้อง/เล่น ด้วยตัวคุณเอง ได้แล้ววันนี้
ระหว่างการทดสอบระบบหากพบข้อผิดพลาด กรุณาแจ้งที่นี่
แค่หลับตา 


ศิลปิน : Bodyslam



ฉันยังจำได้ดี (ว่าฟ้าครามช่างสวยงาม)
รอยยิ้มที่แสนสดใส (มีเธออยู่เต็มหัวใจ)
วันนั้นเคยมีความสุขเท่าไร ทุกนาทีที่เคยมีเธอ

แต่โลกคือการเปลี่ยนแปลง (ที่หมุนไปอย่างแน่นอน)
เมื่อท้องทะเลเปลี่ยนไป (คลื่นลมรอนรอนและแรง)
เมื่อความรักที่มีนั้นต้องจบ แต่ร่องรอยความรักยังเต็มดวงใจ

* ดั่งเวลาเปลี่ยนคนเราที่สุดก็ต้องเปลี่ยน โลกทุกวันให้เปลี่ยนตามกาลเวลา
ฉากแห่งความสุขจะนานแค่ไหนยังคงอยู่ ทุกนาทีที่ฉันหลับตา
เก็บเรื่องราววันที่มีแต่เรา แต่หัวใจยังไม่ลืมเลือน
ฟ้าครามสดใสหัวใจที่งดงาม ภาพความรักเปลี่ยนชีวิตเราให้แสนเบิกบาน
เมื่อเธอนั้นก็ช่างสวยงาม ขอเพียงขอบคุณทุกวันที่แสนดีที่ฉันมี...เธอ

รู้และได้เข้าใจ (ได้รักเองรู้เอง) พรุ่งนี้จะเป็นอย่างไร (ยังจดจำเธอเรื่อยไป)
เมื่อความรักที่มีนั้นต้องจบ แต่ครั้งนึงชีวิตก็เคยมีเธอ ( * )

รักเอย อยู่ที่ใด ยังฝันใฝ่ ยังคงตามหา (ยังคงตามหา)
แท้จริง อยู่ไม่ไกล (ยังคงตามหา) เคยฝันใฝ่ แค่เพียงหลับตา
แค่หลับตา เก็บเรื่องราววันที่มีแต่เรา แต่หัวใจยังไม่ลืมเลือน
ฟ้าครามสดใสหัวใจที่งดงาม ภาพความรักเปลี่ยนชีวิตเราให้แสนเบิกบาน
เมื่อเธอนั้นก็ช่างสวยงาม ขอเพียงขอบคุณทุกวันที่แสนดีที่ฉันมี ...
ฟ้าครามสดใสหัวใจที่งดงาม จดจำไว้ ครั้งนึงชีวิตฉันเคยได้รักเธอ...

ปล. ถ้าผิดตรงไหนก็ขออภัยด้วยนะคับ มือใหม่
ส่งเพลงนี้ให้เพื่อน
วันที่โพสต์ : 19 ก.ย.2550,13:20น. 222.123.244.12
จำนวนผู้ชม : 143904 คน / แสดงความคิดเห็น : 67 ครั้ง
โพสต์โดย


จาก: ซัน
เข้าร่วม: 7 ปีก่อน
เพลง: 0
โพสต์: 1
เพลงแนะนำ
เพลงฮิต
เลือกแสดงเฉพาะ :

  • บอย v 8
    Guest
  • 19 ก.ย.2550,22:39น. 210.86.209.118
    เพราะจิง ๆ อ่ะคับบบ
  • King
    Guest
  • 20 ก.ย.2550,00:01น. 222.123.5.177
    ชอบ ชอบ ชอบ
  • Palm
    Guest
  • 20 ก.ย.2550,17:28น. 125.27.223.41
    ผู้หญิงคัยร้องอ่า



    อยากรู้ๆๆ ??


  • Romio PhMu
    Guest
  • 20 ก.ย.2550,17:29น. 124.121.2.200
    ปนัดดา
  • Ca_man
    Guest
  • 20 ก.ย.2550,18:22น. 58.147.38.212
    แค่หลับตา feat. ปนัดดา เรืองวุฒิ ซื้อแผ่นแท้ดิมีบอก
  • 20 ก.ย.2550,18:32น. 192.168.0.144 203.150.116.39
    ขอคอร์ดด้วยสิคะ จะเอาไว้เล่นงะ อ้อ แท็ปด้วยนะคะ
    ขอบคุณล่วงหน้าค่ะ ((ขอคอร์ดกีต้าร์))
  • devsmudger
    Guest
  • 21 ก.ย.2550,14:51น. 202.137.134.84
    สุดยอดคับเพงนี้.....
  • Pond
    Guest
  • 21 ก.ย.2550,16:30น. 58.8.143.224
    แค่หลับตา
    ศิลปิน : บอดี้สแลม
    แค่หลับตา


    ศิลปิน : Bodyslam



    ฉันยังจำได้ดี (ว่าฟ้าครามช่างสวยงาม)
    รอยยิ้มที่แสนสดใส (มีเธออยู่เต็มหัวใจ)
    วันนั้นเคยมีความสุขเท่าไร ทุกนาทีที่เคยมีเธอ

    แต่โลกคือการเปลี่ยนแปลง (ที่หมุนไป ไม่แน่นอน)
    เมื่อท้องทะเลเปลี่ยนไป (คลื่นลมรอนรอนและแรง)
    เมื่อความรักที่มีนั้นต้องจบ แต่ร่องรอยความรักยังเต็มดวงใจ

    * ดั่งเวลาเปลี่ยนคนเราที่สุดก็ต้องเปลี่ยน โลกทุกวันให้เปลี่ยนตามกาลเวลา
    แต่ฉากแห่งความสุขจะนานแค่ไหนยังคงอยู่ ทุกนาทีที่ฉันหลับตา
    เก็บเรื่องราววันที่มีแต่เรา ในหัวใจยังไม่ลืมเลือน
    ฟ้าครามสดใสหัวใจที่งดงาม ภาพความรักเปลี่ยนชีวิตเราให้แสนเบิกบาน
    เมื่อเธอยิ้มโลกช่างสวยงาม ขอเพียงขอบคุณทุกวันที่แสนดีที่ฉันมี...เธอ

    รู้และได้เข้าใจ (ได้รักเองรู้เอง) พรุ่งนี้จะเป็นอย่างไร (ยังจดจำเธอเรื่อยไป)
    เมื่อความรักที่มีนั้นต้องจบ แต่ครั้งนึงชีวิตก็เคยมีเธอ ( * )

    รักเอย อยู่ที่ใด ยังฝันใฝ่ ยังคงตามหา (ยังคงตามหา)
    แท้จริง อยู่ไม่ไกล (ยังคงตามหา) เคยฝันใฝ่ แค่เพียงหลับตา
    แค่หลับตา เก็บเรื่องราววันที่มีแต่เรา ในหัวใจยังไม่ลืมเลือน
    ฟ้าครามสดใสหัวใจที่งดงาม ภาพความรักเปลี่ยนชีวิตเราให้แสนเบิกบาน
    เมื่อเธอนั้นก็ช่างสวยงาม ขอเพียงขอบคุณทุกวันที่แสนดีที่ฉันมี ...
    ฟ้าครามสดใสหัวใจที่งดงาม จดจำไว้ ครั้งนึงชีวิตฉันเคยได้รักเธอ...


  • ไรว๊ะ
    Guest
  • 21 ก.ย.2550,18:40น. 117.47.67.157
    ปนัดดา เรืองวุฒิ เป็นศิลปินรับเชิญมาร่วมร้องเพลงนี้ด้วยฮะ

    "แค่หลับตา ก็เห็นความมืดมน มัวๆระยิระยับ"
  • 21 ก.ย.2550,20:12น. 222.123.163.224
    มีใครสอน ว่าดีดจังหวะไหนเราได้มั่งงะ เราอยากเบ่นกีต้าร์มั่ง>_<~

    สอนหนูที
  • 21 ก.ย.2550,23:20น. 125.24.218.237
    แค่หลับตา
    ศิลปิน : บอดี้สแลม
    แค่หลับตา


    ศิลปิน : Bodyslam



    ฉันยังจำได้ดี (ว่าฟ้าครามช่างสวยงาม)
    รอยยิ้มที่แสนสดใส (มีเธออยู่เต็มหัวใจ)
    วันนั้นเคยมีความสุขเท่าไร ทุกนาทีที่เคยมีเธอ

    แต่โลกคือการเปลี่ยนแปลง (ที่หมุนไป ไม่แน่นอน)
    เมื่อท้องทะเลเปลี่ยนไป (คลื่นลมรอนรอนและแรง)
    เมื่อความรักที่มีนั้นต้องจบ แต่ร่องรอยความรักยังเต็มดวงใจ

    * ดั่งเวลาเปลี่ยนคนเราที่สุดก็ต้องเปลี่ยน โลกทุกวันให้เปลี่ยนตามกาลเวลา
    แต่ฉากแห่งความสุขจะนานแค่ไหนยังคงอยู่ ทุกนาทีที่ฉันหลับตา
    เก็บเรื่องราววันที่มีแต่เรา ในหัวใจยังไม่ลืมเลือน
    ฟ้าครามสดใสหัวใจที่งดงาม ภาพความรักเปลี่ยนชีวิตเราให้แสนเบิกบาน
    เมื่อเธอยิ้มโลกช่างสวยงาม ขอเพียงขอบคุณทุกวันที่แสนดีที่ฉันมี...เธอ

    รู้และได้เข้าใจ (ได้รักเองรู้เอง) พรุ่งนี้จะเป็นอย่างไร (ยังจดจำเธอเรื่อยไป)
    เมื่อความรักที่มีนั้นต้องจบ แต่ครั้งนึงชีวิตก็เคยมีเธอ ( * )

    รักเอย อยู่ที่ใด ยังฝันใฝ่ ยังคงตามหา (ยังคงตามหา)
    แท้จริง อยู่ไม่ไกล (ยังคงตามหา) เคยฝันใฝ่ แค่เพียงหลับตา
    แค่หลับตา เก็บเรื่องราววันที่มีแต่เรา ในหัวใจยังไม่ลืมเลือน
    ฟ้าครามสดใสหัวใจที่งดงาม ภาพความรักเปลี่ยนชีวิตเราให้แสนเบิกบาน
    เมื่อเธอนั้นก็ช่างสวยงาม ขอเพียงขอบคุณทุกวันที่แสนดีที่ฉันมี ...
    ฟ้าครามสดใสหัวใจที่งดงาม จดจำไว้ ครั้งนึงชีวิตฉันเคยได้รักเธอ...

    ((ขอคอร์ดกีต้าร์))
  • akekytulaw
    Guest
  • 22 ก.ย.2550,00:16น. 58.9.138.213
    เพลง : แค่หลับตา 
    ศิลปิน : Bodyslam
    ฮัลบั้ม : Save my life

    Intro : Em7/Em7/Bm7/A

    Em7
    ฉันยังจำได้ดี (ว่าฟ้าครามช่างสวยงาม) รอยยิ้มที่แสนสดใส (มีเธออยู่เต็มหัวใจ)
    Bm7 A
    วันนั้นเคยมีความสุขเท่าไร ทุกนาทีที่เคยมีเธอ
    Em7
    แต่โลกคือการเปลี่ยนแปลง (ที่หมุนไป ไม่แน่นอน) เมื่อท้องทะเลเปลี่ยนไป (คลื่นลมรอนรอนและแรง)
    Bm7 A
    เมื่อความรักที่มีนั้นต้องจบ แต่ร่องรอยความรักยังเต็มดวงใจ

    Em7 Bm7 A
    * ดั่งเวลาเปลี่ยนคนเราที่สุดก็ต้องเปลี่ยน โลกทุกวันให้เปลี่ยนตามกาลเวลา
    Em7 Bm7 A
    แต่ฉากแห่งความสุขจะนานแค่ไหนยังคงอยู่ ทุกนาทีที่ฉันหลับตา

    D G Bm A G
    ** เก็บเรื่องราววันที่มีแต่เรา ในหัวใจยังไม่ลืมเลือน ฟ้าครามสดใส หัวใจที่งดงาม
    Bm G Bm
    ภาพความรักเปลี่ยนชีวิตเราให้แสนเบิกบาน เมื่อเธอยิ้มโลกช่างสวยงาม
    A G
    ขอเพียงขอบคุณทุกวันที่แสนดีที่ฉันมี...เธอ

    Instru : Bm

    Em7
    รู้และได้เข้าใจ (ได้รักเองรู้เอง) พรุ่งนี้จะเป็นอย่างไร (ยังจดจำเธอเรื่อยไป)
    Bm7 A
    เมื่อความรักที่มีนั้นต้องจบ แต่ครั้งนึงชีวิตก็เคยมีเธอ

    ( *,** )

    Solo : Bm/F#m G/Bm/F#m G/

    D Em F#m G
    รักเอย อยู่ที่ใด ยังฝันใฝ่ ยังคงตามหา (ยังคงตามหา)
    D Em F#m G
    แท้จริง อยู่ไม่ไกล (ยังคงตามหา) เคยฝันใฝ่ แค่เพียงหลับตา (แค่หลับตา)

    ( ** )

    Bm A G A Bm A G
    ฟ้าครามสดใส หัวใจที่งดงาม จดจำไว้ ครั้งหนึ่งชีวิตฉันเคยได้รักเธอ...
  • เดะกำแพงเพชร ว.ร.
    Guest
  • 22 ก.ย.2550,12:13น. 203.113.45.101
    เพราะดี ชอบทุกเพลงเลยอลบั้มนี้อะ โดยเฉพาะท่านผู้ชม มันดี
  • 22 ก.ย.2550,13:53น. 125.25.171.100


    1|----------------------------------------------------------------------------------------------
    2|-------------------------------------7s>9>7>5---------------------------------|7-7-7-7|
    3|---7~---7-7~----7%---7-7~--7--------------9---|7-7-7-7|------|9-9-9-9|-----------
    4|----------------------------------------------------------------------------------------------
    5|----------------------------------------------------------------------------------------------

    ปล. ตรง |-7-7-7-7| |9-9-9-9| ให้เล่นเป็น เขบ็ดอ่ะครับ พอดีมะรู้เขียนไง ฮี่ๆ

    จอม True s.w.k
  • Jan<FireExit>
    Guest
  • 22 ก.ย.2550,23:00น. 124.121.101.167


    Intro

    1|--------------------------------------------------------------------------------------------------------------
    2|-8-8-8-8-8-8-8------7-7-7-7-7-7-7-------8-8-8-8-8-8-8-8-------7-7-7-7-7-7-7-------------
    3|--------------------------------------------------------------------------------------------------------------
    4|--------------------------------------------------------------------------------------------------------------
    5|--------------------------------------------------------------------------------------------------------------
    6|--------------------------------------------------------------------------------------------------------------

    ตรงนี้เล่นอุดสายนะคับ
    1|--------------------------------------------------------------------------------------------------------------
    2|--------------------------------------------------------------------------------------------------------------
    3|--------------------------------------------------------------------------------------------------------------
    4|--5-5---5-5-------4-4---4-4-----------5-5---5-5---4-2---------------------4-5-7-5--4-----------
    5|------------------------------------------------------------------5-2------4-5-7----------------5---7---
    6|--------------------------------------------------------------------------------------------------------------
  • ขี้สงสัย..
    Guest
  • 24 ก.ย.2550,15:18น. 202.12.74.75
    เพลงนี้-7hofh;pขอร์ดEm Em7 Bm7  ป่าวคับ เพ่..
  • banklinkup
    Guest
  • 25 ก.ย.2550,08:40น. 124.121.35.25
    เพราะทั้งอัลบั้มอะครับสุดยอดบอดี้แสลม
  • *-*
    Guest
  • 26 ก.ย.2550,11:21น. 10.29.7.3 202.28.27.6
    แกะเร็วจริง ๆ นี่ขนาดเพลงยังไม่เปิดตัวนะเนี๊ย เร็ว ได้ใจ
  • โอวงแคลชง้าบ
    Guest
  • 27 ก.ย.2550,10:11น. 125.24.56.72


    แก้ให้นิดหน่อยคับ เพี้ยนๆๆ หุๆ
    1|--------------------------------------------------------------------------------------------------------------
    2|--------------------------------------------------------------------------------------------------------------
    3|--------------------------------------------------------------------------------------------------------------
    4|--5-5---5-5-------4-4---4-4-----------5-5---5-5---4--------------------------4-5-7-5-4-------
    5|---------------------------------------------------------------7-5--------------5-7--------------7-5---
    6|--------------------------------------------------------------------7---------7-----------------------------
    แค่นี้ละ จิงเล่นได้หมดหระ
  • โอวงแคลช
    Guest
  • 27 ก.ย.2550,10:14น. 125.24.56.72


    เพิ่มให้อีกหน่อย ท่อนต่อ ๆ

    1|----------------------------------------------------------------------------------------------------
    2|--------5------8-5-----5-------------------------------------------------------------------------------
    3|------------5--------7--------------------------------------------------------------------------------
    4|--5-7----------------------------------------------------------------------------------------------

    แค่นี้แระ ง่าย ๆ เล่นวนไป กี่รอบก้อลงเอาเองนะ ไปร้า
  • ware_man
    Guest
  • 27 ก.ย.2550,12:08น. 210.86.220.155
    เพราะมาก เลยครับ
  • ตูน
    Guest
  • 27 ก.ย.2550,13:31น. 117.47.37.121
    ชุดนี้แกะง่ายมาก
  • กานซัง
    Guest
  • 28 ก.ย.2550,13:12น. 125.27.242.210
    นาฬิกาตายกะเพราะน่ะค่ะ
  • 1 ต.ค.2550,16:37น. 125.25.54.212
    สุดทรีน

    สุดยอด

    สุดๆ

    ชอบ

    สุดใจ

    พี่ตูน

    B

    O

    D

    Y

    S

    L

    A

    M

    เจอกัน

    21

    ตุลา

    เมืองทอง

    หุหุ
  • โอแคลช
    Guest
  • 3 ต.ค.2550,12:04น. 125.25.42.248
    อุดท่อนต่อก่อนฮุค
    แก้หน่อย ผิดเฟรต

    1|----------------------------------------------------------------------------------------------------
    2|-------- 7------10-7-----7-------------------------------------------------------------------------------
    3|------------7----------9--------------------------------------------------------------------------------
    4|---7-9---------------------------------------------------------------------------------------------
  • -*-
    Guest
  • 4 ต.ค.2550,10:19น. 124.120.39.73
    ชอบค่ะชอบเพลงนี้มากกกเลยย โดนมากเลยยย เพราะมากมายยยย

    โย่วๆๆ..BoDy SLAM
  • แมน
    Guest
  • 4 ต.ค.2550,11:44น. 202.28.51.243 202.28.50.7
    กะว่าเบื่อแล้วเชียว ดันออกชุดใหม่มาอีก เลยเปนแฟนพันแท้ไปอีกเรื่อยๆ ..
  • Game
    Guest
  • 5 ต.ค.2550,21:49น. 58.10.164.124


    intro นิดเดียวเอง
    1|----------------------------------------
    2|--------/--------------------/---9-9---/-----
    3|7-77/-7-77--.77109/---99-9/-------------------------------
    4|-----/--------------------/---97-----/----------

    (ที่พิมติดกันคือ เล่นกันเป็นเขบ็ด 2 ชั้นนะครับ)
    ผมว่าน่าจะถูกนะ
  • Game
    Guest
  • 5 ต.ค.2550,21:52น. 58.10.164.124


    เเก้ๆๆๆๆๆๆๆๆ ให้ไม่งง
    intro นิดเดียวเอง
    1|-----------------------------------------
    2|--------/------------------/------9--9-
    3|7-77/-7-77--.77109/----99 9--
    4|-----/-------------------/97----------

    (ที่พิมติดกันคือ เล่นกันเป็นเขบ็ด 2 ชั้นนะครับ)
    ผมว่าน่าจะถูกนะ
  • 7 ต.ค.2550,13:31น. 124.120.246.190


    ขออนุญาต เกลาจากท่านข้างบน นะครับ อิอิ

    -----------------------------------------------------------------------------------------|1
    -----------------------------------------------------------------------------------------|2
    7--77--7--77--7910-9-7-----------------------------------7910-9-7---7------|3
    -------------------------------10-7-77-7-77-765-55--5-5------------10-------|4
    -------------------------------------7-----7---------5-------5------------------------|5

ขอเชิญร่วมแสดงความคิดเห็นครับ

คลิกที่รูป เพื่อแทรกรูปลงในข้อความ
  • Member :
    username
    password
  • Not a member :
    name
    email