Loading

เพลง แฟนเก่า

ลาบานูน (Labanoon)

อัพโหลดคลิปเพลงนี้ที่คุณ ร้อง/เล่น ด้วยตัวคุณเอง ได้แล้ววันนี้
ระหว่างการทดสอบระบบหากพบข้อผิดพลาด กรุณาแจ้งที่นี่
Print



Em A D Bm
เจอหน้าเธอกี่ครั้ง ฉันก็ยังต้องทน ทำเหมือนไม่มีอะไร ทั้งที่ฉันนั้นอยากขอร้อง
Em F# Bm
ให้เธอเปลี่ยนใจ ให้กลับมาเหมือนวันที่เราเคยรักกัน
Em A D
มองหน้าเธอวันนี้ เธอช่างมีความสุข ไม่เหมือนตอนรักกับฉัน
Bm Em F# Bm
เขาที่เป็นคนใหม่ คงเป็นผู้ชายในฝัน เมื่อหมดความสำคัญ ฉันคงต้องทำใจ

Em Bm
* แค่คนที่เธอหลงมา เผลอใจผูกพัน ฉันเป็นได้เพียงเท่านั้น
F# Bm
ไม่มีความหมาย คงต้องยอมรับ ทำอะไรไม่ได้

Em A D Bm
** อยากบอกว่ายังรัก ยังคิดถึงเธอ ทุกๆครั้งที่เจอ ฉันก็อยากให้เข้าใจ
Em A D F#
แต่มันก็เท่านั้น ฉันรู่ว่าสายไป เพราะว่าถึงยังไง เธอก็คงเลือกเขา
Em F# Bm
ฉันคงเป็นได้แค่ แฟนเก่า ที่ต้องเจียมตัว

Instru : A/Bm ( 2time )
G/A/Bm

( ซ้ำ * )

Em F# Bm
ฉันคงเป็นได้แค่ แฟนเก่า ที่ต้องเจียมตัว
Em F# Bm
ฉันคงเป็นได้แค่ แฟนเก่า ที่ยังรักเธอ
http://www.musicatm.com/thai/คอร์ดเพลง-แฟนเก่า-ลาบานูน-(Labanoon)-83.html
ส่งเพลงนี้ให้เพื่อน
วันที่โพสต์ : 25 ม.ค.2546,13:45น.
จำนวนผู้ชม : 523385 คน / แสดงความคิดเห็น : 152 ครั้ง
โพสต์โดย


จาก: เว็บมาสซาเตอร์
เข้าร่วม: 9 ปีก่อน
เพลง: 0
โพสต์: 218
เพลงแนะนำ
เพลงฮิต
เลือกแสดงเฉพาะ :

  • unknow
    Guest
  • 27 มี.ค.2546,16:27น.
    เพราะดีมาก    ซึ้งมากชอบด้วย 
  • คนมีแฟนเก่า
    Guest
  • 30 เม.ย.2546,08:49น.
    เพลงนี้จะไม่เพราะเลยถ้าทุกคนรักและไม่เลิกกัน
  • คนเคยมีแฟนเก่า
    Guest
  • 14 พ.ค.2546,02:57น.
    เพลงนี้ซึ้งและกินใจดีมากครับ ผมเจอแฟนเก่าผม ผมจะแกล้งร้อง
    
    เพลงนี้ให้เขาได้ยิน เขาจะอายและก้มหน้าเลยครับ ทุกวันนี้คืนดีกันแล้ว
  • เด็กเพิ่งหัด
    Guest
  • 22 พ.ย.2546,21:16น.
    อยากได้ท่อนโซโล่ครับผมลองแกะแล้วแต่ไม่เหมือน(เรื่องของเรื่องผมแกะไม่เป็นคับ)ขอบคุณครับ
  • ไก่
    Guest
  • 8 ม.ค.2547,13:39น.
    เพราะมากเลยครับคิดถึงตอนที่ตัวเองโดนทิ้งเลย...... 
  • คนถูกทิ้ง
    Guest
  • 3 ก.พ.2547,13:24น.
    ดนใจผมมากเลยเพราะแฟนเก่าของผมก็ทิ้งไปแล้วแต่ยังเจอหน้ากันอยู่ ไม่รู้จะทำอย่างไร เพลงนี้ตรงเป๊ะเลย
  • คนโดนทิ้งค่ะ
    Guest
  • 24 ก.พ.2547,16:39น.
    เพลงนี้ถูกใจมากเลยค่ะเพราะตอนนี้ก็เป็นได้แค่แฟนเก่าเฃาไปซะแล้วค่ะ เพราะถูกทิ้ง   แฟนเก่าก็มีแฟนใหม่ไปแล้ว น่าเจ็บใจมากเลยเนี้ย!    
  • imax
    Guest
  • 21 เม.ย.2547,10:42น.
    ขอintro&soloด้วยนะครับ(คือหามานานแล้วอยากได้เจงๆ)   
    ((ขอคอร์ดกีต้าร์))
  • หนุ่มศรีสะเกษ
    Guest
  • 12 พ.ค.2547,20:11น.
    น่าจะเปลี่ยน  F#7  จะเข้ากันกว่านี้เด้อ
  • บอม
    Guest
  • 14 มิ.ย.2547,15:04น.
    ขอท่อนโชโลคร้าบบบบบบบบบ
  • เป้
    Guest
  • 11 ก.ค.2547,15:37น.
    อยากได้ tab อะคะ
  • ---**---
    Guest
  • 18 ก.ค.2547,12:13น.
    อยากได้ solo  
  • ลูกเจี๊ยบ
    Guest
  • 22 ก.ค.2547,19:51น.
    อยากได้introกะท่อนsoloง่า!!
    หาได้มะคับ อยากเล่นเพลงนี้เปงง่ะ!
    ถึงเก่าแต่เปงเพลงที่เพาะดีอะคับ ช่วยหน่อยนะฮะ!!
  • 1111111111
    Guest
  • 22 ก.ค.2547,22:11น.
    111111111111111111111111
    ((อัพเดทแหล่งทดลองฟัง))
  • no man no cry
    Guest
  • 27 ก.ค.2547,12:26น.
    โคตรตรงเลยคะหมายถึงเนื้อหาของเพลงนะคะ  
  • กุ้ง
    Guest
  • 29 ก.ค.2547,08:09น.
    1    2--2~3-0--2--3------3--2--0 
    2 3--2-2-3-2
    3 4--2--4
  • แมค
    Guest
  • 29 ก.ค.2547,09:32น.
    แจ่มๆๆๆๆๆๆๆๆๆ 
  • โอF4เชียงราย
    Guest
  • 14 ส.ค.2547,20:29น.
    intro
    1)--3--2--0--2--3--3--2--0---------------------------------------------------
    2)--------------------------------2--3--3--2---------------------
    3)-----------------------------------------------4--2-------------

    ชัว ๆ ๆ ๆ ๆ

    ((อัพเดทคอร์ดกีต้าร์))
  • โอF4เชียงราย
    Guest
  • 14 ส.ค.2547,20:37น.
    intro
    1)--3--2--0--2--3--3--2--0---------------------------------------------------
    2)--------------------------------2--3--3--2---------------------
    3)-----------------------------------------------4--2--4-----------

    อันนี้ชัวกว่า (ลืมดู!!!)


    ((อัพเดทคอร์ดกีต้าร์))
  • ลูกเจี๊ยบ
    Guest
  • 16 ส.ค.2547,22:20น.
    ันจันทร์ ที่ 16 สิงหาคม 2547 เวลา 22:20 น. ] [ x ] ผู้ตอบคนที่ 22
  • pop
    Guest
  • 26 ส.ค.2547,19:26น.
    อยากฟังเพลงจัง  ทำไมถึงฟังไม่ได้             
  • เซียน
    Guest
  • 27 ส.ค.2547,11:24น.
    intro
    1)--3--2--0--2--3--3--2--0---------------------------------------------------
    2)--------------------------------2--3--3--2---------------------
    3)-----------------------------------------------4--2--4-----------

    อันนี้ชัวช์ !!!!!กว่ามากๆเลยละ
  • ศิลปินป่า
    Guest
  • 9 ก.ย.2547,10:49น.
    TAP  ท่อน  solo  ใครมีกรุณาบอกหน่อยครับ  ขอบคุณ
  • เต้ Mr GALON...
    Guest
  • 26 ม.ค.2548,20:40น.
    Intro จริงอะเล่นกีต้าร์ 2 ตัวพร้อมเบส ให้กีต้าร์ตัวหนึ่งเกา อีกตัว Solo
    1)----2--3--0--2--3-----3--2--0-------------------------------3--2-----------
    2)-----------------------0-----------3--2--2--3--2----------------------3------
    3)------------------------------------------------------4--2--4-------------------
    4)----------------------------------------------------------------------------------
    5)----------------------------------------------------------------------------------
    6)----------------------------------------------------------------------------------
  • olo
    Guest
  • 15 ก.พ.2548,17:21น.
    -------------------5------2/6
    ---4------3----2------3-----2/1
  • ขวัญใจพี่หลวง
    Guest
  • 5 พ.ย.2548,18:27น.
    ใครฆ่าพระ...?       
  • คนที่พี่อุ๊ทิ้ง
    Guest
  • 9 ธ.ค.2548,21:05น.
     ความรักของเราคงไปไม่ถึงหรอกนะแต่ให้พี่รู้ไว้ว่าเพลงคนนี้เป็นแค่แฟนเก่าสำหรับพี่ก็พอนะ

ขอเชิญร่วมแสดงความคิดเห็นครับ

คลิกที่รูป เพื่อแทรกรูปลงในข้อความ
  • Member :
    username
    password
  • Not a member :
    name
    email