Loading

ŧ

ʡ

ѾŴԻŧس ͧ/ µǤسͧ ѹ
ҧ÷ͺкҡͼԴҴ س駷
ͨ ˹ҵ ҧѹ ״ͧѹ ͡ʩѹѡ˹ 
ҤҪͺ ʹѡҡ Դѹѡ˹

**鹷ҧͧҵҧѹ ҽѹͧѹԴԹ ºԹ
Ҥͧ Һ.. »ͧ

*ҩѹͺ áҺ͡ ͹鹨͡ ҹ͡ҧѹ
˹ҽѹ繨ԧ Ẻѹ ҴԴѧ ԧ
ǹŴ Full Song
*424243034176584
*424243034176584
ǹŴ Truetone
*424218034176584
*424218034176584
*424218034176584
ǹŴ Poly
*424214034176584
*424214034176584
*424214034176584
ǹŴ Mono
*424211034176584
*424211034176584
*424211034176584
* ѵҤҺԡôǹŴ Fullsong, Truetone, Poly, Mono : 35 ҷ/ŧ
ŧ͹
ѹʵ : 16 ..2548,14:59. 203.188.16.185
ӹǹ : 564328 / ʴԴ : 167
ʵ


ҡ: F16FALCON
: 9 ա͹
ŧ: 0
ʵ: 9
ŧй
ŧԵ
͡ʴ੾ :


  • Guest
  • 16 ..2548,17:14.
    ѧ˹
  • posh
    Guest
  • 18 ..2548,07:28.
    ѧ¿ѧ
    ((յ))
  • 乫 BaZenJi
    Guest
  • 18 ..2548,10:28.
    ѹشʹ õ ҡ ʡҡ 蹡н شʹԧ
    ԭͧ #ҧ ҧФѺкIRC
  • 18 ..2548,17:26.
    ⤵êͺµҵشáǤպ ⤵Solo⤵º
    ʡ ԭ ǧLOSO ѺҴѧ͹ФѺ


  • 19 ..2548,19:13.
    + ᷻Ҥ
    ((յ))
  • ͹ͧѹ Ϩѹ
    Guest
  • 20 ..2548,21:51.
    E----------------------------------------
    B----------------------------------------
    G----------------------------------------
    D---------2-----------------------------
    A-------2---2-----4-~-5-~--4--2--------
    E-----0-----------------------------------

  • ʴ
    Guest
  • 21 ..2548,11:09.
    ŧչ..ʡ..͹͡..͡ҹ͡ҧѹ..ҡѺŧ..ŧٴ֧˭ԧͧ..áзҨ͡..÷͡ΌѺ...¹ŧͧǹ..ʡ..
  • ԹԨ
    Guest
  • 21 ..2548,16:50.
                     F         G     Em                      Am    Dm                     G                             C    C7 
    *ҩѹͺ áҺ͡ ͹鹨͡ ҹ͡ҧѹ
    F G Em Am Dm G C
    ˹ҽѹ繨ԧ Ẻѹ ҴԴѧ ԧ

    ¿ѧ-_-"
  • 21 ..2548,17:19.
    ҡѺ
  • ͹ͧѹ Ϩѹ
    Guest
  • 21 ..2548,21:33.
    Am D G Em ǹ

  • Guest
  • 22 ..2548,15:36.
    ըѧ     

  • Guest
  • 23 ..2548,12:07.
    ͺҡ 
    ((յ))
  • XBOX
    Guest
  • 23 ..2548,12:24.
     : ʡ 

    intro : Em , Em , Em
    Am D Bm Em Am D G
    ͨ ˹ҵ ҧѹ Դͧѹ ͡ʩѹѡ˹
    Am D Bm Em Am Ebdim Em
    Ҫͺ ʹѡҡ Դѹѡ˹
    Am D Bm Em Am D( Ebdim) G( Em)
    * 鹷ҧͧҵҧѹ ѹͧѹԴԹ ºԹ

    Am D Bm Em Am Ebdim Em
    ͧ Һ »ͧ

    Am D Bm Em Am D
    ** ҩѹͺ á Һ͡ ͹鹨͡ ҹ͡
    G Am D Bm Em Am
    ҧѹ () ˹繨ԧ Ẻѹ ҴԴ
    Ebdim Em
    ѧ ԧ

    Solo : Am , D , Bm , Em , Am , D , G , Am , D , Bm , Em , Am , Ebdim , Em
    ( **,*,**)

    Em Em Em

  • ǪԷ ش
    Guest
  • 23 ..2548,17:27.
     : ʡ 

    intro : Am , Am , Am
    F G Em Am F G C
    ͨ ˹ҵ ҧѹ Դͧѹ ͡ʩѹѡ˹
    F G Em Am Dm G C C7
    Ҫͺ ʹѡҡ Դѹѡ˹
    F G Em Am Dm G C
    * 鹷ҧͧҵҧѹ ѹͧѹԴԹ ºԹ

    F G Em Am Dm G C
    ͧ Һ »ͧ

    F G Em Am Dm G
    ** ҩѹͺ á Һ͡ ͹鹨͡ ҹ͡
    C C7 F G Em Am Dm
    ҧѹ () ˹繨ԧ Ẻѹ ҴԴ
    C G
    ѧ ԧ

    Solo : /F G/Em Am/F G/Em Am/Dm G/C C7/
    ( **,*,**)

    Am Am Am

    ѹͧѺͶ١ּԴСѹ-_-"
  • ǪԷ ش
    Guest
  • 23 ..2548,17:37.
     : ʡ 

    intro : Am , Am , Am
    F G Em Am Dm G C
    ͨ ˹ҵ ҧѹ Դͧѹ ͡ʩѹѡ˹
    F G Em Am Dm G C C7
    Ҫͺ ʹѡҡ Դѹѡ˹
    F G Em Am Dm G C
    * 鹷ҧͧҵҧѹ ѹͧѹԴԹ ºԹ

    F G Em Am Dm G C
    ͧ Һ »ͧ

    F G Em Am Dm G
    ** ҩѹͺ á Һ͡ ͹鹨͡ ҹ͡
    C C7 F G Em Am Dm
    ҧѹ () ˹繨ԧ Ẻѹ ҴԴ
    C G
    ѧ ԧ

    Solo : /F G/Em Am/Dm G/C/Em Am/Dm G/C C7/
    ( **,*,**)

    Am Am Am

    ¿ѧͧͨж١ŧе
  • ͧѺ
    Guest
  • 24 ..2548,15:32.
    ѡʡ

  • Guest
  • 25 ..2548,16:58.
     Ѻ ͺŧҡԴǡҡмФѺŧ蹡յ餹պԿѧФѺѧҤ¤Ѻ ͺسʡҡ¤Ѻ      


  • 26 ..2548,15:12.
    ѧ˹
  • Toon[Fx] ǧ
    Guest
  • 27 ..2548,17:51.
     Tab ˹¤Ѻ
  • ..
    Guest
  • 29 ..2548,12:58.
    Դҡд͡r&b 
  • Showa
    Guest
  • 29 ..2548,23:49.
    ͹ҹ Tab ˹ԤѺ ͹ ** Ѵ蹹 
  • ⳷ ͧ͹
    Guest
  • 8 ..2548,16:03.
    ͺ  ʡ   ҡ¤Ѻ
    ͺ繺 ࿹ŧǨԧ¤Ѻ
  • ͹
    Guest
  • 9 ..2548,18:09.
     : ʡ 

    intro : Em , Em , Em
    Am D Bm Em Am D G
    ͨ ˹ҵ ҧѹ Դͧѹ ͡ʩѹѡ˹
    Am D Bm Em Am Ebdim Em
    Ҫͺ ʹѡҡ Դѹѡ˹
    Am D Bm Em Am D( Ebdim) G( Em)
    * 鹷ҧͧҵҧѹ ѹͧѹԴԹ ºԹ

    Am D Bm Em Am Ebdim Em
    ͧ Һ »ͧ

    Am D Bm Em Am D
    ** ҩѹͺ á Һ͡ ͹鹨͡ ҹ͡
    G Am D Bm Em Am
    ҧѹ () ˹繨ԧ Ẻѹ ҴԴ
    Ebdim Em
    ѧ ԧ

    Solo : Am , D , Bm , Em , Am , D , G , Am , D , Bm , Em , Am , Ebdim , Em
    ( **,*,**)

    Em Em Em

  • Ѵ
    Guest
  • 10 ..2548,15:22.
    ͹ѹ  solo  ѹѧ  
    º͡˹¤Ѻ
    ((յ))
  • Ѵ
    Guest
  • 10 ..2548,15:24.
         
    ((յ))

  • Guest
  • 13 ..2548,19:04.
    ˹¤Ѻ͹ѧѺ

  • 11
    Guest
  • 13 ..2548,20:44.
    Solo ͹⹹ФѺ  蹡Ѻյ

    e----------------------------------------
    B----------------------------------------
    G----------------------------------------
    D---------2-----------------------------
    A-------2---2-----4-~-5-~--4--2--------
    E-----0-----------------------------------

    e------------------------------------10-----------------------------------------------------------------------
    B--12-10-10-12-10-----------------10-12------10-10-12-10--------------------------------------
    G-----------------------9-11-9-7--------------12-------------------12-11---11-9-7-9---------------
    D---------------------------------------------------------------------------------------------9-9------------
    A--------------------------------------------------------------------------------------------------------------
    E--------------------------------------------------------------------------------------------------------------

    e------------------------------------10----------------------------------------------------------------------
    B--12-10-10-12-10-----------------10-12------10-10-12-10--------------------------------------
    G-----------------------12-11-9-7--------------12-----------------12-11-12-11-9-------------------
    D--------------------------------------------------------------------------------------------------------------
    A--------------------------------------------------------------------------------------------------------------
    E--------------------------------------------------------------------------------------------------------------

    e----------------------------------------
    B----------------------------------------
    G----------------------------------------
    D---------2-----------------------------
    A-------2---2-----4-~-5-~--4--2--------
    E-----0-----------------------------------

    Դҡѹ 13 ͧ
    (¹Tab繹ҨеԴѴҧ
  • 11
    Guest
  • 13 ..2548,20:51.
    աҧ˹觼СѺյ俿´ѹеҧѹ
    դԴҧá͡
  • 11
    Guest
  • 18 ..2548,18:06.
    ˹¤Ѻ
    e----------------------------------------
    B----------------------------------------
    G----------------------------------------
    D---------2-----------------------------
    A-------2---2-----4-~-5-~--4--2--------
    E-----0-----------------------------------

    e------------------------------------10-----------------------------------------------------------------------
    B--13-11-11-13-11-----------------11-13------11-11-13-11--------------------------------------
    G-----------------------9-11-9-7--------------12-------------------12-11---11-9-7-9---------------
    D---------------------------------------------------------------------------------------------9-9------------
    A--------------------------------------------------------------------------------------------------------------
    E--------------------------------------------------------------------------------------------------------------

    e------------------------------------10----------------------------------------------------------------------
    B--13-11-11-13-11-----------------11-13------11-11-13-11--------------------------------------
    G-----------------------12-11-9-7--------------12-----------------12-11-12-11-9-------------------
    D--------------------------------------------------------------------------------------------------------------
    A--------------------------------------------------------------------------------------------------------------
    E--------------------------------------------------------------------------------------------------------------

    e----------------------------------------
    B----------------------------------------
    G----------------------------------------
    D---------2-----------------------------
    A-------2---2-----4-~-5-~--4--2--------
    E-----0-----------------------------------
    չ(Ҩ)

ԭʴԴ繤Ѻ

ԡٻ áٻŧ㹢ͤ
  • Member :
    username
    password
  • Not a member :
    name
    email