Loading

เพลง แอน

โลโซ

อัพโหลดคลิปเพลงนี้ที่คุณ ร้อง/เล่น ด้วยตัวคุณเอง ได้แล้ววันนี้
ระหว่างการทดสอบระบบหากพบข้อผิดพลาด กรุณาแจ้งที่นี่
Intro:

หากอยู่คนเดียวมันคงไม่ดีนะเธอ มาอยู่ด้วยกันแล้วมันจะดีไหมเออ

ตื่นนอนตอนเช้าก็เพียงแค่เห็นหน้าเธอ ก็คงจะพอ...พอๆ ๆ

โวๆ โอ โฮ

*ตะโกนดังๆ ให้รู้ว่าฉันรักแอน คงจะโชคดีถ้าเธอยังไม่มีแฟน

สุขใจจังเลยถ้าฉันได้แอนควงแขน ก็คงจะพอ.....พอๆ

**ใครจะว่าอย่างไรแต่ฉันก็ ...ยังรักแอน

ใครจะว่าอย่างไรแต่ฉันก็ ....ยังชอบแอน

ใครจะว่าอย่างไรแต่ฉันก็ ...ยังรักแอน

ใครจะว่าอย่างไรแต่ฉันก็ ....ยังชอบแอน

***ความจริงเมย์กับนุ่น เขาก็สวย เราเองไม่ได้หวังจะถูกหวย

วันๆ เฝ้าแต่ฝันถึงแต่แอน คิดถึงแต่แอน ..You know what I mean Ohhh yeahh

Solo :

ซ้ำ (*,**,***,**,**,**)
ดาวน์โหลด Full Song
กด *424243072246584
กด *424243072246584
ดาวน์โหลด Truetone
กด *424218072246584
กด *424218072246584
กด *424218072246584
ดาวน์โหลด Poly
กด *424214072246584
กด *424214072246584
กด *424214072246584
ดาวน์โหลด Mono
กด *424211072246584
กด *424211072246584
กด *424211072246584
* อัตราค่าบริการดาวน์โหลด Fullsong, Truetone, Poly, Mono : 35 บาท/เพลง
ส่งเพลงนี้ให้เพื่อน
วันที่โพสต์ : 7 ก.ค.2549,19:07น. 58.147.117.204
จำนวนผู้ชม : 75092 คน / แสดงความคิดเห็น : 82 ครั้ง
โพสต์โดย


จาก: เจมส์
เข้าร่วม: 9 ปีก่อน
เพลง: 0
โพสต์: 9
เพลงแนะนำ
เพลงฮิต
เลือกแสดงเฉพาะ :

  • tam
    Guest
  • 20 มิ.ย.2551,02:15น. 202.91.19.192
    แฟนผมชื่อแอนนะชอบเป็นชีวิตจิตใจคับ
    rock&roll losolosoloso
  • T-REX
    Guest
  • 7 ก.ค.2549,19:54น.
    มีคอร์ดกันยังคับ ช่วยแกะกันหน่อย
  • jo
    Guest
  • 8 ก.ค.2549,10:50น.
    6  ----5---0---2----0-----5----0----2-----0-----5-5----------------------------------------------------5   --------------------------------------------------7-7---5 5--5--5---------------------------------------4 -----------------------------------------------------       -7-7---7---7-------------------------------------
  • Nosonsale
    Guest
  • 8 ก.ค.2549,11:31น.
      แก้เพลงกันเร็วจังนะครับ  เก่งจัง          
  • ป้อน
    Guest
  • 8 ก.ค.2549,11:45น.
    ขอ
    ((ขอคอร์ดกีต้าร์))
  • JO ee 53
    Guest
  • 8 ก.ค.2549,13:11น.
    Intro 

    6 ----5-0--2--0 5--0--2--0----------------------------------------------------
    5 ----------------------------------0-0----5-5-5-5------------------------------- 4 รอบ
    4-----------------------------------2-2----7-7-7-7------------------------------
    3 ----------------------------------2-2----7-7-7-7-----------------------------
  • Jo
    Guest
  • 8 ก.ค.2549,15:42น.

    อุดสายตลอด


    6----------------------------2-2-2-2-2-2------------------------------------------
    5----------0-0-0-0-0-----4-4-4-4-4-4------------------0-0-0-0-0-0-0-----
    4----------2-2-2-2-2-----4-4-4-4-4-4------0-0-0-----2-2-2-2-2-2-2---
    3----------2-2-2-2-2--------------------------2-2-2-----2-2-2-2-2-2-2----
    2-------------------------------------------------3-3-3----------------------------
    1-----------------------------------------------------------------------------------
    ((ขอคอร์ดกีต้าร์))
  • ต้อม
    Guest
  • 9 ก.ค.2549,11:15น.
    ฟังได้ที่ไหนอ่ะ ครายรู้บอกหน่อยจิ
  • x
    Guest
  • 10 ก.ค.2549,14:16น.
    ขอคอดคัป  
  • Unkown
    Guest
  • 11 ก.ค.2549,21:53น.
    หาฟังเพลงไม่ได้เลยอ่ะคับ อยากฟังจังเลย ในเวปที่พวกคุณบอกก็ไม่มีนะคับ
  • อุนตร้าแมน ( แมนน้อย )
    Guest
  • 12 ก.ค.2549,17:14น.
    เพลงนี้โดนมากๆเลยพี่ชอบสุด 
  • คนน่ารัก
    Guest
  • 13 ก.ค.2549,10:10น.
    ชอบเพลงพี่เสกทุกเพลงเลยค่ะ   
  • สุดหล่อ
    Guest
  • 13 ก.ค.2549,10:47น.
    ดีจ้ะ
    ((ขอคอร์ดกีต้าร์))
  • Jeera
    Guest
  • 13 ก.ค.2549,10:48น.
    ไพเราะมาก
  • เด็กน่าน
    Guest
  • 13 ก.ค.2549,14:03น.
    ชื่อเพลงทำไมทุเรศจังเลยค่ะ  
  • lum+yong
    Guest
  • 13 ก.ค.2549,16:39น.
    ฟังง่ายแต่มันดีครับ

    ชอบ....
  • dan
    Guest
  • 13 ก.ค.2549,16:53น.
        ใครก็ได้บอกผมทีว่าคอร์ดร๊อคเขาเล่นกันอย่างไงแล้วมาเล่นกะกีต้าร์โป่งได้เปล่าช่วยสอนจากข้างล่างนี้ก็ได้คับ                                                                                                                                                                                                                                                                                                     6----------------------------2-2-2-2-2-2------------------------------------------
    5----------0-0-0-0-0-----4-4-4-4-4-4------------------0-0-0-0-0-0-0-----
    4----------2-2-2-2-2-----4-4-4-4-4-4------0-0-0-----2-2-2-2-2-2-2---
    3----------2-2-2-2-2--------------------------2-2-2-----2-2-2-2-2-2-2----
    2-------------------------------------------------3-3-3----------------------------
    1-----------------------------------------------------------------------------------
  • มั่วคับ
    Guest
  • 13 ก.ค.2549,20:13น.

    intro มั่วเอาคับ
    1-----------------------------------------------------------------------------------------
    2------------------------------------------------------------------------------------------
    3------------------------------------------7---7--7--7------------------------------------------
    4---------------------------------4--4---7---7--7--7--------------------------------
    5---0-------------0-------------4--4----5---5--5--5---------------------------------
    6------0--2--0-----0--2--0---2--2-------------------------------------------------------
  • มั่วมากๆๆคับ
    Guest
  • 13 ก.ค.2549,21:09น.
    solo มั่วเอาคับ

    1-----------------------------------------------------------------------------------------------------
    2-----------------------------------------------------------------------------------------------------
    3---------------------------------------------------------------------------------4^4^^4งัด2--
    4------------------2-2-------------------------------2-2--------2-2--------2-----------------2
    5-----0-0-2/4--------4-0-2-2/4-0--0-0-2/4------0ตบ4------0ตบ4--------------------
    6----------------------------------------------------------------------------------------------------

    1--------------------------------------------------------------------------------------------------
    2-------------------------------------------------------------------------------------------8^---
    3--------------------------------------------------------------------------------------------------
    4--------------2-2----------------------------------------------------------2-4งัด2------------
    5---0-0-2/4-------4-0-2-2/4-0--0-2-0-2/4-2-0--0-2-0--2ตบ4------------4--------
    6------------------------------------------------------------------------------------------------


  • ต้น คนระยอง
    Guest
  • 13 ก.ค.2549,23:06น.
    ขอบคุณเพื่อนๆนักดนตรีทุกคน
  • MAN LOSO
    Guest
  • 14 ก.ค.2549,13:27น.
    man  ม้วยมากๆเลยครับถ้าม้วนก็มานั้งซาวม้วนกันก่อน
    E--------------F------------------A-A-D--------------H-----------J--------------L
    ----------Y-------------N-------------------D------------------------W-----------Y
    -------------R---------TTTT-------TTT-----------T----------T--------------T--
  • วฝวย
    Guest
  • 14 ก.ค.2549,13:32น.
    ีาสย
  • .......
    Guest
  • 14 ก.ค.2549,15:32น.
    เร็วจังเลยนะเนี้ย      แต่ทำไมไม่มีคอร์ด     
  • ไนซ์ เชียงใหม่ BaZenJi
    Guest
  • 14 ก.ค.2549,16:46น.
    แนวง่าวคิงว่า. หแต่ยังไม่ได้ฟัง จะฟังได้จากไหนอ่า..
  • ต่ายโลโซ ต.ป.
    Guest
  • 14 ก.ค.2549,23:49น.
    INTRO
    A-E-F#-E-A-E-F# - E-F#-D
    เข้าเพลง
    A-F#-D
    ท่อนแยก
    B-G-B-G-B-G-F-E

    ******
    แอน
    ศิลปิน : โลโซ

    Intro: A-E-F#-E-A-E-F# - E-F#-D


    A F# D A F# D
    หากอยู่คนเดียวมันคงไม่ดีนะเธอ มาอยู่ด้วยกันแล้วมันจะดีไหมเออ


    A F# D A F# D
    ตื่นนอนตอนเช้าก็เพียงแค่เห็นหน้าเธอ ก็คงจะพอ...พอๆ ๆ



    โวๆ โอ โฮ


    A F# D A F# D
    *ตะโกนดังๆ ให้รู้ว่าฉันรักแอน คงจะโชคดีถ้าเธอยังไม่มีแฟน


    A F# D A F# D
    สุขใจจังเลยถ้าฉันได้แอนควงแขน ก็คงจะพอ.....พอๆ


    A-E-F#-E-A-E-F# - E-F#- D
    **ใครจะว่าอย่างไรแต่ฉันก็ ...ยังรักแอน


    A-E-F#-E-A-E-F# - E-F#- D
    ใครจะว่าอย่างไรแต่ฉันก็ ....ยังชอบแอน


    A-E-F#-E-A-E-F# - E-F#- D
    ใครจะว่าอย่างไรแต่ฉันก็ ...ยังรักแอน


    A-E-F#-E-A-E-F# - E-F#- D
    ใครจะว่าอย่างไรแต่ฉันก็ ....ยังชอบแอน


    B G B G
    ***ความจริงเมย์กับนุ่น เขาก็สวย เราเองไม่ได้หวังจะถูกหวย


    B G F E
    วันๆ เฝ้าแต่ฝันถึงแต่แอน คิดถึงแต่แอน ..You know what I mean Ohhh yeahh



    Solo :

    A-E-F#-E-A-E-F# - E-F#-D


    มีอะไรก็มาคุยได้ที่ 096381726
  • คุณ ต้อม
    Guest
  • 15 ก.ค.2549,00:38น.
     เล่นยังไงอ่ะ กำ แมร่งเล่นม่ายเปงอ่ะเพลงเนี้ย ชอบ มากๆ ตรงกับผมเลยอ่ะ 

ขอเชิญร่วมแสดงความคิดเห็นครับ

คลิกที่รูป เพื่อแทรกรูปลงในข้อความ
  • Member :
    username
    password
  • Not a member :
    name
    email