Loading

เพลง ใจง่าย

ลาบานูน (Labanoon)

อัพโหลดคลิปเพลงนี้ที่คุณ ร้อง/เล่น ด้วยตัวคุณเอง ได้แล้ววันนี้
ระหว่างการทดสอบระบบหากพบข้อผิดพลาด กรุณาแจ้งที่นี่
Print



Intro: C Am F G

วัน ทู ทรี โฟว์

Instru: C C C G
C Am
เจ็บมาจนไม่รู้กี่ที ใจดวงนี้ช้ำมากี่หน
F C G
แปลกที่ใจยังฝืนยังทน โดนเขาทิ้งเท่าไรไม่จำ
C Am
เจอะใครชวนไปไหนก็ไป เพียงคำหวานแค่ไม่กี่คำ
F C G
แต่สุดท้ายก็โดนเขาทำ แล้วก็ช้ำคนเดียวทุกที
Am F
ใจคนเราบางทีก็เหงาเกินไป จนไม่คิดอะไรให้ดี
Dm G
พอมีคนมาหลอกให้รักเลยเจ็บแบบนี้
C Em Am G F G
* โอ้ใจเอยแล้วจะทำฉันท์ใดแล้วจะห้ามได้อย่างไร โว้..โฮ..
C Em Am G F
เหนื่อยจริงหนอที่มีใจเรื่อยเปื่อยแล้วต้องช้ำอยู่เรื่อยไป
G C G
เมื่อไหร่ใจจะเลิกง่ายซะที
C Am
ไม่อยากเป็นอย่างนี้อีกเลย ใจเจ้าเอยรู้ตัวบ้างสิ
F C G
มัวแต่ปล่อยให้เขาย่ำยี ไม่สงสารตัวเองรึไง เฮอะ
C Am
ในเมื่อวันพรุ่งนี้ยังมี ชีวิตนี้นั้นยังอีกไกล
F C G
เจ็บก็จำให้มันขึ้นใจ ไม่ต้องช้ำข้างเดียวทั้งปี
Am F
** ใจคนเราบางทีก็เหงาเกินไป จนไม่คิดอะไรให้ดี
Dm G
พอมีคนมาหลอกให้รักเลยเจ็บแบบนี้

แย่ๆๆ เจอใครก็รัก เจอใครก็รัก เฮ้อ..
(ซ้ำ *)
Instru: C Am F C G (2times)
(ซ้ำ **,*,*)
Instru: C C G C Am F G C
http://www.musicatm.com/thai/คอร์ดเพลง-ใจง่าย-ลาบานูน-(Labanoon)-148.html
ส่งเพลงนี้ให้เพื่อน
วันที่โพสต์ : 9 มี.ค.2546,17:00น.
จำนวนผู้ชม : 233654 คน / แสดงความคิดเห็น : 43 ครั้ง
โพสต์โดย


จาก: เว็บมาสซาเตอร์
เข้าร่วม: 9 ปีก่อน
เพลง: 0
โพสต์: 218
เพลงแนะนำ
เพลงฮิต
เลือกแสดงเฉพาะ :

  • มาท fh;o
    Guest
  • 2 มี.ค.2547,10:34น.
     
    ((อัพเดทแหล่งทดลองฟัง))
  • 007
    Guest
  • 8 มิ.ย.2547,17:47น.
    fu,kdddddddd
    ((ขอคอร์ดกีต้าร์))
  • ampm
    Guest
  • 30 ก.ค.2547,21:15น.
     
  • นิด
    Guest
  • 5 ส.ค.2547,22:05น.
        
  • ลูกเจี๊ยบ
    Guest
  • 16 ส.ค.2547,22:29น.
    พี่คับขอท่อนintoกับท่อนsoloหน่อยจิครับ 
    ((ขอคอร์ดกีต้าร์))
  • ไก่ 027037519
    Guest
  • 5 ต.ค.2547,10:28น.
    ลาบาโนหลอทุกๆคนคะ
  • สาวก
    Guest
  • 18 ม.ค.2548,20:23น.
    ขอSOLOครับบบบบบบบบบบบบ
  • @
    Guest
  • 15 ก.พ.2548,23:17น.
     
  • Inspector
    Guest
  • 8 ก.ค.2548,18:49น.
    ขอ Tap solo หน่อยๆๆๆ ค๊าบบบบบ
  • brema
    Guest
  • 23 ต.ค.2548,22:42น.
    ขอ Solo หน่อยดิ รี๊ดอ่า 
    ((ขอคอร์ดกีต้าร์))
  • แม็ค
    Guest
  • 27 ธ.ค.2548,11:37น.
    Guitar1
    C Am F G
    Guitar2
    1|
    2|-5-5-5-3-1-0----1-1-1-0
    3|-----------------2------------2-0--2-2-2-4-5-4--4-4-4-5-7-5
    4|-----------------------------------3
    5|
    6|
    Soloจะตามมาทีหลังนะงับกีต้าร์1คอยตีลงตามจังหวะแรกนะคับแท็ปนี้100%นะคับ
  • แม็ค
    Guest
  • 27 ธ.ค.2548,11:39น.
    ลืมบอกไปนี่INTROนะ
  • เอก
    Guest
  • 16 ม.ค.2549,19:46น.
    ขอ Tab หน่อยจิคับ
  • สายล่อฟ้า
    Guest
  • 30 ม.ค.2549,10:15น.
     ขอ โซโล่ ครับ ด่วนๆ  
  • nu
    Guest
  • 30 ม.ค.2549,12:55น.
    สุดๆๆๆๆๆๆๆๆๆๆๆๆๆๆๆๆๆๆๆๆๆๆๆๆๆๆๆๆๆๆๆๆๆๆ
  • CLASH
    Guest
  • 21 ก.พ.2549,11:40น.
    SOLO ตามคอร์ดเลย 
  • แม็ค(ลูกตำรวจ)
    Guest
  • 24 มี.ค.2549,21:44น.
    Intro
    Line2
    C Am F G
    1|-8--------------------------8--------------------------8---------------------10
    2|-8--------------------------10------------------------10-------------------12
    3|-9--------------------------9--------------------------10-------------------12
    4|-10------------------------10-------------------------10------------------12
    5|-10-------------------------8--------------------------8--------------------10
    6|-8---------------------------8--------------------------8--------------------10
    Line1
    1|
    2|17-17-17-15-13-12---13-13-13-12
    3|--------------------------14----------------14-12---14-14-14-16-17-16-16-16-16-17-19-17
    4|-----------------------------------------------------15
    นี่Introเว้นวรรคกันเอานะสะบัดปิ๊คเอามั่งนะครับตรงที่รัวๆ
    ----------------------------------------------------------------------------------------------------------------
    -=ในท่อนร้องท่อนหลังท่อนฮุคแรกจะมีกีต้าร์เล่นตามนิดๆ=-
    ไม่อยากเป็นอย่างนี้อีกเลย ใจเจ้าเอ๋ยรู้ตัวบ้างซิ
    1|-6-5---5/3--3/5

    มัวแต่ปล่อยให้เขาย่ำยี ไม่สงสารตัวเองรึไง เฮอะ
    2|-8-8--6-6--5-6--5h6-6

    ในเมื่อวันพรุ่งนี้ยังมี ชีวิตนี้นั้นยังอีกไกล
    2|-15^-10(ดีดช่อง15ดันสายแล้วรูดไปช่อง10)

    เจ็บก็จำให้มันขึ้นใจ ไม่ต้องช้ำข้างเดียวทั้งปี
    2|-10-10--8-8--6-6--8-8/10

    * ^= ดันสาย
    ----------------------------------------------------------------------------------------------------------------
    Solo
    1|
    2|
    3|-9-12-12-12-12/14-12-12--9-12-12/14-14/17-14-12-12/14--9-9/10

    1|
    2|-10-13-13-13-13/15-15/17-13--10-10-10/8--8-8-8/10-8-8/1
    3|

    1|
    2|
    3||-9-12-12-12-12/14-12-12--9-12-12/14-14/17-14-12-12/14--15^15/10

    1|
    2|-10-13-13-13-13/15-15/17-13--10-10-10/8--8-8-8/10-8-------8-10p---8/10
    3|------------------------------------------------------------------------------7/9---------9

    */=สไลด์
    p=pull off
    ----------------------------------------------------------------------------------------------------------------

    ใจคนเราบางทีก็เหงาเกินไป จนไม่คิดอะไรให้ดี
    2|12hph
    3|12hph
    4|12hoh
    * h=hammer on
    p=pull off

    ----------------------------------------------------------------------------------------------------------------

    โอ้ใจเอยแล้วจะทำฉันท์ใดแล้วจะห้ามได้อย่างไร โว้..โฮ..
    เหนื่อยจริงหนอที่มีใจเรื่อยเปื่อยแล้วต้องช้ำอยู่เรื่อยไป

    1|-8-10-12--12-10-10-12-8--12-10-10--8-7-8--12-10--8-10-12--12-10-10-12-8
    ต่อๆ
    1|-12-10-10--8-7--8-7-5-7-8-7-5-7-8-7-5-7-8-7--10-8-7-8-10-8-7-8-10-8-7-8-
    ลงมาต่ออีกนิดมันท่อนเดียวกันหมดเลยนะ
    1|-10-10--8-8
    เสร็จละท่อนที่มันไล่เร็วอาจหลายรอบกว่านี้นะลองเล่นดูเอาถ้าเขียนไม่ผิดเลยน่าจะ100%หมดเลยนะ
    ผิดตรงไหนบอกนะเดี๋ยวมาแก้ไข เหมือน-ไม่เหมือนบอกหน่อยนะ
  • แม็ค(ลูกตำรวจ)
    Guest
  • 24 มี.ค.2549,21:55น.
    มัวแต่ปล่อยให้เขาย่ำยี ไม่สงสารตัวเองรึไง เฮอะ
    2|-8-8--6-6--5-6--5h6-5
    ผิดตรงไหนอีกบอกนะครับ
  • Mix@Za'#PrO#
    Guest
  • 24 เม.ย.2549,15:53น.
    โหลดเพลงได้ที่ไหนอ่ะคับ  ใจง่าย  เนี่ย mp3อ่ะครับใครมีเว็บบอกทีนะคับ หรือแอดมาทีนะคับ  ขอบคุณมากๆคับ
    ((ขอคอร์ดกีต้าร์))
  • บัก
    Guest
  • 6 ก.ค.2549,11:03น.
        
    ((ขอคอร์ดกีต้าร์))
  • neo
    Guest
  • 7 ก.ย.2549,22:45น.
    ชอบเพลงนี้มากเพราะฟังทีไรกินใจทุกที  NEOครับ...................555555555555  
    ((ขอคอร์ดกีต้าร์))
  • ...
    Guest
  • 3 ต.ค.2549,23:05น.
    TAP BASS มั่งดิครับ
  • แม็ค
    Guest
  • 21 ม.ค.2550,11:54น.

    Intro
    Line2
    C Am F G
    1|-8--------------------------8--------------------------8---------------------10
    2|-8--------------------------10------------------------10-------------------12
    3|-9--------------------------9--------------------------10-------------------12
    4|-10------------------------10-------------------------10------------------12
    5|-10-------------------------8--------------------------8--------------------10
    6|-8---------------------------8--------------------------8--------------------10
    Line1
    1|
    2|17-17-17-15-13-12---13-13-13-12
    3|--------------------------14----------------14-12---14-14-14-16-17-16-16-16-16-17-19-17
    4|-----------------------------------------------------15
    นี่Introเว้นวรรคกันเอานะสะบัดปิ๊คเอามั่งนะครับตรงที่รัวๆ
    ----------------------------------------------------------------------------------------------------------------
    -=ในท่อนร้องท่อนหลังท่อนฮุคแรกจะมีกีต้าร์เล่นตามนิดๆ=-
    ไม่อยากเป็นอย่างนี้อีกเลย ใจเจ้าเอ๋ยรู้ตัวบ้างซิ
    1|-6-5---5/3--3/5
    มัวแต่ปล่อยให้เขาย่ำยี ไม่สงสารตัวเองรึไง เฮอะ
    2|-8-8--6-6--5-6--5h6-5

    ในเมื่อวันพรุ่งนี้ยังมี ชีวิตนี้นั้นยังอีกไกล
    2|-15^-10(ดีดช่อง15ดันสายแล้วรูดไปช่อง10)

    เจ็บก็จำให้มันขึ้นใจ ไม่ต้องช้ำข้างเดียวทั้งปี
    2|-10-10--8-8--6-6--8-8/10

    * ^= ดันสาย
    ----------------------------------------------------------------------------------------------------------------
    Solo
    1|
    2|
    3|-9-12-12-12-12/14-12-12--9-12-12/14-14/17-14-12-12/14--9-9/10

    1|
    2|-10-13-13-13-13/15-15/17-13--10-10-10/8--8-8-8/10-8-8/1
    3|

    1|
    2|
    3||-9-12-12-12-12/14-12-12--9-12-12/14-14/17-14-12-12/14--15^15/10

    1|
    2|-10-13-13-13-13/15-15/17-13--10-10-10/8--8-8-8/10-8-------8-10p---8/10
    3|------------------------------------------------------------------------------7/9---------9

    */=สไลด์
    p=pull off
    ----------------------------------------------------------------------------------------------------------------

    ใจคนเราบางทีก็เหงาเกินไป จนไม่คิดอะไรให้ดี
    2|12hph
    3|12hph
    4|12hoh
    * h=hammer on
    p=pull off

    ----------------------------------------------------------------------------------------------------------------

    โอ้ใจเอยแล้วจะทำฉันท์ใดแล้วจะห้ามได้อย่างไร โว้..โฮ..
    เหนื่อยจริงหนอที่มีใจเรื่อยเปื่อยแล้วต้องช้ำอยู่เรื่อยไป

    1|-8-10-12--12-10-10-12-8--12-10-10--8-7-8--12-10--8-10-12--12-10-10-12-8
    ต่อๆ
    1|-12-10-10--8-7--8-7-5-7-8-7-5-7-8-7-5-7-8-7--10-8-7-8-10-8-7-8-10-8-7-8-
    ลงมาต่ออีกนิดมันท่อนเดียวกันหมดเลยนะ
    1|-10-10--8-8
    เสร็จละท่อนที่มันไล่เร็วอาจหลายรอบกว่านี้นะลองเล่นดูเอาถ้าเขียนไม่ผิดเลยน่าจะ100%หมดเลยนะ
    ผิดตรงไหนบอกนะเดี๋ยวมาแก้ไข เหมือน-ไม่เหมือนบอกหน่อยนะ
  • ...
    Guest
  • 6 ก.พ.2550,08:49น.
    ขอแท็ปเบสหน่อยจร้า แกะไม่ถุก เสียงเบาอ่า ((ขอคอร์ดกีต้าร์))
  • 18 ก.พ.2550,16:17น.
    1|
    2|-5-5-5-3-1-0----1-1-1-0
    3|-----------------2------------2-0--2-2-2-4-5-4--4-4-4-5-7-5
    4|-----------------------------------3

    Solo
    1|
    2|
    3|-9-12-12-12-12/14-12-12--9-12-12/14-14/17-14-12-12/14--9-9/10

    1|
    2|-10-13-13-13-13/15-15/17-13--10-10-10/8--8-8-8/10-8-8/1
    3|

    1|
    2|
    3||-9-12-12-12-12/14-12-12--9-12-12/14-14/17-14-12-12/14--15^15/10

    1|
    2|-10-13-13-13-13/15-15/17-13--10-10-10/8--8-8-8/10-8-------8-10p---8/10
    3|------------------------------------------------------------------------------7/9---------9
  • 18 ก.พ.2550,16:18น.
    Intro: C Am F G 

    วัน ทู ทรี โฟว์

    Instru: C C C G
    C Am
    เจ็บมาจนไม่รู้กี่ที ใจดวงนี้ช้ำมากี่หน
    F C G
    แปลกที่ใจยังฝืนยังทน โดนเขาทิ้งเท่าไรไม่จำ
    C Am
    เจอะใครชวนไปไหนก็ไป เพียงคำหวานแค่ไม่กี่คำ
    F C G
    แต่สุดท้ายก็โดนเขาทำ แล้วก็ช้ำคนเดียวทุกที
    Am F
    ใจคนเราบางทีก็เหงาเกินไป จนไม่คิดอะไรให้ดี
    Dm G
    พอมีคนมาหลอกให้รักเลยเจ็บแบบนี้
    C Em Am G F G
    * โอ้ใจเอยแล้วจะทำฉันท์ใดแล้วจะห้ามได้อย่างไร โว้..โฮ..
    C Em Am G F
    เหนื่อยจริงหนอที่มีใจเรื่อยเปื่อยแล้วต้องช้ำอยู่เรื่อยไป
    G C G
    เมื่อไหร่ใจจะเลิกง่ายซะที
    C Am
    ไม่อยากเป็นอย่างนี้อีกเลย ใจเจ้าเอยรู้ตัวบ้างสิ
    F C G
    มัวแต่ปล่อยให้เขาย่ำยี ไม่สงสารตัวเองรึไง เฮอะ
    C Am
    ในเมื่อวันพรุ่งนี้ยังมี ชีวิตนี้นั้นยังอีกไกล
    F C G
    เจ็บก็จำให้มันขึ้นใจ ไม่ต้องช้ำข้างเดียวทั้งปี
    Am F
    ** ใจคนเราบางทีก็เหงาเกินไป จนไม่คิดอะไรให้ดี
    Dm G
    พอมีคนมาหลอกให้รักเลยเจ็บแบบนี้

    แย่ๆๆ เจอใครก็รัก เจอใครก็รัก เฮ้อ..
    (ซ้ำ *)
    Instru: C Am F C G (2times)
    (ซ้ำ **,*,*)
    Instru: C C G C Am F G C
    1|
    2|-5-5-5-3-1-0----1-1-1-0
    3|-----------------2------------2-0--2-2-2-4-5-4--4-4-4-5-7-5
    4|-----------------------------------3

    Solo
    1|
    2|
    3|-9-12-12-12-12/14-12-12--9-12-12/14-14/17-14-12-12/14--9-9/10

    1|
    2|-10-13-13-13-13/15-15/17-13--10-10-10/8--8-8-8/10-8-8/1
    3|

    1|
    2|
    3||-9-12-12-12-12/14-12-12--9-12-12/14-14/17-14-12-12/14--15^15/10

    1|
    2|-10-13-13-13-13/15-15/17-13--10-10-10/8--8-8-8/10-8-------8-10p---8/10
    3|------------------------------------------------------------------------------7/9---------9
  • เด็กใจแตก
    Guest
  • 20 ก.พ.2550,17:31น.
    พี่น้องเราอยากได้ Intro ของเบสอะ
    เราอยากเล่นอะขอด้วยนะ(ขอบใจ)







  • หัวอ่อน
    Guest
  • 7 มี.ค.2550,15:37น.
    เลข0คือที่ไหนครับบอกทีมือไหม่
  • โน
    Guest
  • 26 มี.ค.2550,21:41น.
    ยากได้ solo เบส ยากได้อย่างแรง ใครเข้ามาช่วยอ่านบ้าง
    อยากเล่น ต้องเอาไปแข็ง นานานานานานานานานานานนานานานานานานานานานานานานนานานานานานานานานนานานานานานานานานานานานานานานา ((ขอคอร์ดกีต้าร์))

ขอเชิญร่วมแสดงความคิดเห็นครับ

คลิกที่รูป เพื่อแทรกรูปลงในข้อความ
  • Member :
    username
    password
  • Not a member :
    name
    email