Loading

เพลง ใจน้อย

เอบีนอร์มอล (ABnormal)

อัพโหลดคลิปเพลงนี้ที่คุณ ร้อง/เล่น ด้วยตัวคุณเอง ได้แล้ววันนี้
ระหว่างการทดสอบระบบหากพบข้อผิดพลาด กรุณาแจ้งที่นี่
Print
ยอมรับว่าชั้น บางทีก้อหวงเทอไปหน่อย 
คนมันมีใจเดียวก้อเงี้ย ใจน้อย
แต่ที่จิงมันเปนห่วงเทอที่คอยเฝ้าถามเทอบ่อยๆ
เทอจาไปกับใครที่ไหนอย่างน้อย
บอกชั้นหน่อยคนดี

*ไม่รักก้อคงไม่ห่วงอย่างนี้
ที่ต้องหวงก้อเพราะเทอนะมีแค่คนเดียว
หากเทอเปนอะไร ความผิดชั้นคนเดียว
ที่ดูแลเทอไม่ดี จะไม่มีวันให้อภัยตัวเอง

ยอมรับว่าชั้น บางทีก้อวุ่นวายไปหน่อย
คนมันมีใจเดียวก้อเงี้ย ใจน้อย
แต่ที่จิงมันเปนห่วงเทอ ที่คอยเฝ้าถามเทอบ่อยๆ
เทอจะไปกับใครที่ไหน อย่างน้อย
ก้อให้บอกชั้นหน่อย นะคนดี
(*,*) หากเทอต้องเสียใจ จะไม่มีวันให้อภัย ตัวเอง
http://www.musicatm.com/thai/คอร์ดเพลง-ใจน้อย-เอบีนอร์มอล-(ABnormal)-2375.html
ส่งเพลงนี้ให้เพื่อน
วันที่โพสต์ : 15 ก.ค.2547,17:26น.
จำนวนผู้ชม : 418707 คน / แสดงความคิดเห็น : 474 ครั้ง
โพสต์โดย


จาก: amp#327ampaumlamp#8224
Guest
เพลงแนะนำ
เพลงฮิต
เลือกแสดงเฉพาะ :

  • JUNE (R.W.B.)
    Guest
  • 13 ส.ค.2547,12:24น.
    เพลงนี้เพราะมากๆๆๆๆ   ความหมายก็ดีมากด้วย สุดท้ายจะบอกว่า  พี่กวางน่ารักและหล่อมากๆๆๆ     
  • แมค
    Guest
  • 13 ส.ค.2547,14:09น.
          แจ่มๆๆๆๆๆ    
  • มือกีต้าร์วงGREET
    Guest
  • 13 ส.ค.2547,19:44น.
    ขอบคุณทมากตรับที่เเกะINTROกะSOLOให้  สบายอีกแล้วผม 
  • ....
    Guest
  • 13 ส.ค.2547,21:24น.
    นี่เด็กนักเรียนโรงเรียนชื่อดังในเชียงใหม่ถูกขังตายในห้องน้ำกว่าจะพบศพก็ผ่านมา1อาทิตย
    

  • ....
    Guest
  • 13 ส.ค.2547,21:25น.
    นี่เด็กนักเรียนโรงเรียนชื่อดังในเชียงใหม่ถูกขังตายในห้องน้ำกว่าจะพบศพก็ผ่านมา1อาทิตย
    

  • คนสวย
    Guest
  • 13 ส.ค.2547,21:28น.
    พี่กวางน่ารักจัง
    ((อัพเดทแหล่งทดลองฟัง)) ((อัพเดทคอร์ดกีต้าร์)) ((ขอคอร์ดกีต้าร์))
  • M_w
    Guest
  • 13 ส.ค.2547,22:32น.
    เอาๆ 3 คน ก็ 3 คีย์ แล้วเราจะเล่นไหนดีเนี่ย
  • กลัวด้วย
    Guest
  • 13 ส.ค.2547,23:41น.
  • u2+5+
    Guest
  • 14 ส.ค.2547,00:22น.
    fjukkl        
  • .... nu 8 ......
    Guest
  • 14 ส.ค.2547,00:27น.
    เพลงนี้อยากให้เด็กบาสเบอร์10 ฟังจังเพราะโดนมากๆ
    
    อยากบอกเค้าว่าไม่รักก็คงไม่ห่วงอย่างนี้
    ที่ต้องหวงก็เพราะเธอนะมีแค่คนเดียว
    คิดถึงมากๆๆๆๆๆๆๆๆๆๆๆๆๆ ถึงมากที่สุด
    อยากบอกว่ายังเหมือนเดิมนะ
  • รร
    Guest
  • 14 ส.ค.2547,09:19น.
    ชื่ออัลบั้ม fast lane เว้ย และพวกที่โพสข้อความรบกวนขอให้แม่มันตาย
  • เล้ง
    Guest
  • 14 ส.ค.2547,09:27น.
    อยากได้คอร์ดที่ถูกต้อง
    
    ((อัพเดทแหล่งทดลองฟัง)) ((อัพเดทคอร์ดกีต้าร์)) ((ขอคอร์ดกีต้าร์))
  • คน
    Guest
  • 14 ส.ค.2547,21:01น.
    ไม่มีอะไรให้พิมพ์แล้วอ่ะ เขาพิมพ์หมดแล้ว 
    
  • Timmy
    Guest
  • 14 ส.ค.2547,21:21น.
    ขอคอร์อดแบบที่เอาแบๆๆชัวๆเลยอ่ะ
    
    ขอหน่อยได้ไหมน่ะคราบ

    |ติมมี่|
  • feironline
    Guest
  • 15 ส.ค.2547,10:16น.
    โอ้ กินใจ 
    
    พี่กวางหล่อมั่กๆ
  • =Non@mE=
    Guest
  • 15 ส.ค.2547,11:23น.
    ผมมาเขียน Tab ให้นะคับจิงๆๆแล้วของคุณ ไก่ ก็ถูกแล้วนะคับแต่เอามาลงแล้วมันงง  ผมก็เลยมาจัดให้ใหม่
    

    Intro G D/G/Em A6sus4/G

    Intro

    1)------10------------10--------------------------
    2)------------10--------------10--------8--------
    3)--------------------------------------------------

    ตรง Intro ดีดคอร์ด G ตามแบบข้างล่าง ดีดลง 1 ทีนะคับ แล้วกดเส้น 2 เฟร็ต 3 แล้วก็เล่นตามข้างบนได้เลย


    Em A6sus4
    1)------3 1)------2
    2)------3 2)------3
    3)------0 3) -----2
    4)------2 4) -----2
    5)------2 5)------0
    6)------0 6)--------


    G
    1)------3
    2)------3
    3)------0
    4)------0
    5)------2
    6)------3

    Solo

    1)---------------------------------------------------------------------
    2)----7-7------8-----------7-7-------8-------------8/10-----8------
    3)----------7---------7------------7---------7------------------------
    4)----------------------------------------------------------------------
    5)----------------------------------------------------------------------
    6)----------------------------------------------------------------------


    1)-------------------------------------------------------------------
    2)----7-7------8-----------7-7-------8------------7--7-----8----
    3)----------7---------7------------7---------7---------------------
    4)------------------------------------------------------------------
    5)-------------------------------------------------------------------
    6)-------------------------------------------------------------------

    1)-----------------------8---------------------------------------10------------
    2)---------------8-8---------8----------------------10-10-------------10----
    3)------7/9-------------------------------9/11---------------------------------
    4)------------------------------------------------------------------------------
    5)-------------------------------------------------------------------------------
    6)-------------------------------------------------------------------------------

    1)----------------------10----------------10------------------------------------
    2)----8-----10/12-----------10/12--------------10/12--------^12------------
    3)--------------------------------------------------------------------------------
    4)--------------------------------------------------------------------------------
    5)--------------------------------------------------------------------------------
    6)--------------------------------------------------------------------------------

    1)--------------------------------------------------------------------
    2)----7-7------8-----------7-7-------8-------------8/10-----8--------
    3)----------7---------7------------7---------7-------------------------
    4)-------------------------------------------------------------------------
    5)---------------------------------------------------------------------
    6)-----------------------------------------------------------------------

    1)-------------------------------------------------------------------
    2)----7-7------8-----------7-7-------8------------7--7-----8----
    3)----------7---------7------------7---------7---------------------
    4)------------------------------------------------------------------
    5)-------------------------------------------------------------------
    6)-------------------------------------------------------------------

    1)----------------------8----------------------------------10------------------
    2)---------------8---------------------------------10-----------------8--------
    3)------7/9-------------------------------9/11---------------------------------
    4)------------------------------------------------------------------------------
    5)-------------------------------------------------------------------------------
    6)-------------------------------------------------------------------------------

    จบและคับ อิอิมีไรสงสัยก็ถามมาได้นะคับจาเข้ามาเปงระยะๆ หุหุ บายย

    ส่วน Outtro ก็เล่นเหมือน Intro นะ


    ((อัพเดทคอร์ดกีต้าร์))
  • wgpngt
    Guest
  • 15 ส.ค.2547,11:30น.
    Noname แกะเจ๋งแฮะ วันหลังแกะมาอีกนะครับ ขอบคุณมากเลย
  • =Non@mE=
    Guest
  • 15 ส.ค.2547,11:36น.
    Intro G D/G/Em A6sus4/G
    

    Em Bm
    ยอมรับว่าชั้น บางทีก้อหวงเทอไปหน่อย
    Em A6sus4
    คนมันมีใจเดียวก้อเงี้ย....ใจน้อย
    Em Bm
    แต่ที่จิงมันเปนห่วงเทอ ที่คอยเฝ้าถามเทอบ่อยๆ
    Em A6sus4
    เทอจาไปกับใครที่ไหนอย่างน้อย
    C D G D
    บอกชั้นหน่อย......คนดี

    G Em
    *ไม่รักก้อคงไม่หวงอย่างนี้
    G D
    ที่ต้องหวงก้อเพราะเทอนะมีแค่คนเดียว
    Bm Em
    หากเทอเปนอะไร ความผิดชั้นคนเดียว ..
    C D C D G
    ที่ดูแลเทอไม่ดี จะไม่มีวันให้อภัย .... ตัวเอง


    Em Bm
    ยอมรับว่าชั้น บางทีก้อวุ่นวายไปหน่อย
    Em A6sus4
    คนมันมีใจเดียวก้อเงี้ย ใจน้อย
    Em Bm
    แต่ที่จิงมันเปนห่วงเทอ ที่คอยเฝ้าถามเทอบ่อยๆ
    Em A6sus4
    เทอจะไปกับใครที่ไหน อย่างน้อย
    C D G D
    ก้อบอกชั้นหน่อย นะคนดี

    (ซ้ำ *)

    (Solo) Em/Bm/C D/G/Em/Bm/C D

    (*)
    C D C D
    หากเทอต้องเสียใจ จะไม่มีวันให้อภัย..... ตัวเอง

    (Outro) G D/G/Em A6sus4/G

    ((อัพเดทคอร์ดกีต้าร์))
  • แบงค์กาโม่
    Guest
  • 15 ส.ค.2547,11:48น.
    ขอ tab แบบดูง่ายๆ หน่อยนะคับ
    

    ป๋มขอร้อง...................^^
    ((ขอคอร์ดกีต้าร์))
  • yuie
    Guest
  • 15 ส.ค.2547,20:33น.
    สุดยอดๆๆๆๆๆๆๆๆๆๆๆๆๆๆๆๆๆๆๆๆๆๆๆๆๆๆๆๆๆๆๆ 
  • ต่าย
    Guest
  • 16 ส.ค.2547,09:02น.
    อยากจะบอกป๊อปว่าต่ายก็ใจน้อยเป็นเหมือนกันนะ เราคิดถึงนายนะ รักมาก  
  • flower
    Guest
  • 16 ส.ค.2547,11:21น.
    คนใจน้อยมันเกิดอาการน้อยใจ  แล้วใครมีใครบ้างอ่ะ........ป่าวใจน้อยไม่เป็นอ่ะ                                           พอดีใจน้อยมากพอแล้ว  ขอทำน่ารักหน่อย   ฮ่า ฮ่า ฮ่า    
  • นาน
    Guest
  • 16 ส.ค.2547,11:24น.
                 
    ((อัพเดทคอร์ดกีต้าร์))
  • นู๋วิ
    Guest
  • 16 ส.ค.2547,11:50น.
      อยากบอกว่าโดน...ใจมาก คนร้องก็น่ารัก  
    
    คนส่งก็น่ารักนะ..อู๋ยๆๆๆ
  • อ๊ธ
    Guest
  • 16 ส.ค.2547,19:39น.
    เพาะดี
    
    พี่กวางน่ารักมั่กมากกกกกกกก
  • อ๊ะ
    Guest
  • 16 ส.ค.2547,19:41น.
    โคตรเพาะเลย
    
    โคตรน่ารักเลย
    โคตรหล่อเลย
  • เฟรม
    Guest
  • 16 ส.ค.2547,19:47น.
    อยากเล่นกีตาร์เก่งๆจัง Solo ผมลองดูของพวกเพ่แล้วไม่เข้าใจอ่ะคับว่าต้องกดเส้นไหนแล้วดีดยังไง เว้นระยะนานแค่ไหนอ่ะคับ add เมลผมแล้วมาคุยกันใน m ก้อได้นะคับ อยากเล่นกีตาร์เก่งๆจาง mail pa_famehotmail.com นะคับ
    ((ขอคอร์ดกีต้าร์))
  • เต้ยนาครัว
    Guest
  • 17 ส.ค.2547,09:23น.

    ขอเบอร์บ้าง ซี่ค้า
    ((อัพเดทแหล่งทดลองฟัง))
  • เด็ก 28
    Guest
  • 17 ส.ค.2547,09:59น.
    เพลงเพราะมากเลยค่ะ อยากฟังมากๆ พี่กวางน่ารักมาก
    ((อัพเดทแหล่งทดลองฟัง)) ((อัพเดทคอร์ดกีต้าร์)) ((ขอคอร์ดกีต้าร์))

ขอเชิญร่วมแสดงความคิดเห็นครับ

คลิกที่รูป เพื่อแทรกรูปลงในข้อความ
  • Member :
    username
    password
  • Not a member :
    name
    email