Loading

เพลง ใจสั่งมา

โลโซ

อัพโหลดคลิปเพลงนี้ที่คุณ ร้อง/เล่น ด้วยตัวคุณเอง ได้แล้ววันนี้
ระหว่างการทดสอบระบบหากพบข้อผิดพลาด กรุณาแจ้งที่นี่
Intro : G / C (2times)


G C
หากว่าเธอผ่านมาได้ยิน เพลงนี้
G D
คาดว่าเธอก็คงรู้ดีว่าเป็นฉัน
C
มอบให้เธอคนเดียว
Bm Em
อาจไม่เกี่ยวแต่สำคัญ
Am C D
เพราะฉันนั้นอยากให้เธอได้ฟัง

G
ที่เฝ้าแต่โทร
C
โทรไปหาเธอเรื่อยเปื่อย
G D
เหนื่อยก็ยอมก็ใจชอบเธอไม่เบา
C
แต่ใจเจ้ากรรมไม่รู้เลย
Bm Em
ว่าเธอไม่ชอบเรา
Am D G/G7
ไม่สน และไม่เอา ไม่อยากคุย

Am D
* ก็เลยมาร้องเพลงบอก
Bm Em
แค่อยากให้เธอนั้นเข้าใจ
Am D G/G7
ไอ้สิ่งที่ฉันทำลงไป ใจสั่งมา
Am D
อย่าโกรธเลยนะคนดี
Bm Em
ยกโทษให้ฉันนะแก้วตา
Am D G/D
คราวหลังจะไม่มา จะไม่โทร

Instru : G / C / G / D / C / Bm / Em / Am / D / G / G7

( ซ้ำ * )

G C
แหละสุดท้ายที่ในหัวใจ มันร่ำร้อง
G D
อยากจะมองจะมองหน้าเธอ อีกสักที
C Bm
ก่อนจะลาเธอไป คนใจดำหน้าตาดี
Am D G
ขอโทษเธอสักทีจากหัวใจ
C Bm Em
แหละมีหนึ่งคำ ที่ยังค้างข้างใน
Am D G
คำพูดลูกผู้ชาย ฉันชอบเธอ
ดาวน์โหลด Full Song
กด *424243006236584
กด *424243006236584
ดาวน์โหลด Truetone
กด *424218006236584
กด *424218006236584
กด *424218006236584
ดาวน์โหลด Poly
กด *424214006236584
กด *424214006236584
กด *424214006236584
ดาวน์โหลด Mono
กด *424211006236584
กด *424211006236584
กด *424211006236584
* อัตราค่าบริการดาวน์โหลด Fullsong, Truetone, Poly, Mono : 35 บาท/เพลง
ส่งเพลงนี้ให้เพื่อน
วันที่โพสต์ : 12 ม.ค.2547,22:43น.
จำนวนผู้ชม : 975678 คน / แสดงความคิดเห็น : 109 ครั้ง
โพสต์โดย


จาก: Zull
Guest
เพลงแนะนำ
เพลงฮิต
เลือกแสดงเฉพาะ :

  • เด็กลาดพร้าว
    Guest
  • 9 ก.พ.2547,06:51น.
    +++  เพราะวะ ...ชอบ 
  • โน๊ต
    Guest
  • 14 ก.พ.2547,13:45น.
    ขอTabเพลงนี้หน่อยครับ ถ้าได้ท่อน Solo จะดีมาก
    ((ขอคอร์ดกีต้าร์))
  • แมนนี่
    Guest
  • 20 ก.พ.2547,23:32น.
    อยาก ๆๆๆๆ ได้ ท่อน Solo อ่ะน่ะ ขอหน่อยดิ 
    ((ขอคอร์ดกีต้าร์))
  • ตาลบูด
    Guest
  • 25 ก.พ.2547,22:22น.
    ขอTabเพลงนี้หน่อยครับ ถ้าได้ท่อน Solo จะดีมาก(เห็นด้วย)
  • เด็ก น.ว.
    Guest
  • 2 มี.ค.2547,22:44น.
    อยากได้Tabงะคับ   
    ((อัพเดทคอร์ดกีต้าร์))
  • ออฟเด็กราชบุรี
    Guest
  • 15 มี.ค.2547,11:16น.
    ขอเท็บครับช่วยหน่อย 
  • พอล
    Guest
  • 18 มี.ค.2547,22:37น.
    ขอท่อนโซโล่
    ((ขอคอร์ดกีต้าร์))
  • Mckiler แฟนพันธุ์โลโซ
    Guest
  • 19 มี.ค.2547,12:36น.
    ขอท่อนโซโล่หน่อย
    ((ขอคอร์ดกีต้าร์))
  • น้องไอซ์
    Guest
  • 19 มี.ค.2547,12:58น.
    1	-----------------------------------------
    2 ---5-7-7s8----7-7s8---10-8----5
    3 ------------------------------------6--
    4 ----------------------------------------
    5 ----------------------------------------
    6 ----------------------------------------


    1 --------------------------------------------------
    2 ---5-7-7s8----7-7s8---10-8---7-----7---
    3 -----------------------------------------8---- 7..
    4 --------------------------------------------------
    5 --------------------------------------------------
    6 --------------------------------------------------
    แล้วก็เข้า Intro เลยนะคะ ใครอยากได้แท็บเพลงอะไรอีกก็เมลมานะคะ เด๋วแกะให้ค่ะ


  • เหอ
    Guest
  • 21 มี.ค.2547,12:12น.
    ขอ solo ฮ่ะ จะขอบ คุณมากๆ
  • กอล์ฟ
    Guest
  • 20 เม.ย.2547,16:29น.
    เด๋ววันหลังเอามาหั้ยนะ

    solo อ่า
  • กอล์ฟ คนเดิม
    Guest
  • 22 เม.ย.2547,21:35น.
    solo เปนหมดแล้วคร๊าบ แต่ลืมทุดครั้งเลย ก่อนที่จามาเล่น วันหลังเอามาหั้ยคร๊าบ
    ((อัพเดทคอร์ดกีต้าร์))
  • เทพบุตรเอวจั๊ม
    Guest
  • 6 พ.ค.2547,02:11น.
    เพลงเลยเมลมาที่suntod_ro@hotmail.com&name=คนที่ตอบคนที่9อ่ะบอกไม่เห็นบอกเมลเลยถ้าว่างเมลมาหาฉันหน่อยนะอยากได้หลายเพลงเลยเมลมาที่suntod_ro@hotmail.com" target="_blank">คนที่ตอบคนที่9อ่ะบอกไม่เห็นบอกเมลเลยถ้าว่างเมลมาหาฉันหน่อยนะอยากได้หลายเพลงเลยเมลมาที่suntod_ro@hotmail.comนะขอบคุณมาก
  • aaaa
    Guest
  • 13 พ.ค.2547,12:48น.
    อยากได้ตอน intro อ่ะครับ ส่วนที่เกา
  • ytel
    Guest
  • 17 มิ.ย.2547,14:32น.
    iceนายมั่วปะtab อะไรของนาย
  • ningz_numbz
    Guest
  • 27 มิ.ย.2547,19:46น.
    เอาๆ
  • มิติ
    Guest
  • 14 ก.ค.2547,06:13น.
    มั่วหมด เดี๋ยวว่างจะมาลงให้เด้อ 
  • เปรม
    Guest
  • 23 ก.ค.2547,09:38น.
    tab  tab     
  • ฟฟฟ
    Guest
  • 29 ก.ค.2547,14:15น.
    น้องไอซ์ แกะเพลงได้มั่วมากเลยละ
  • K.J.Boy
    Guest
  • 30 ก.ค.2547,03:30น.
    ท่อน Intro
    1|-----------------------------------------------------------
    2|-----------------------------------------------------------
    3|---------------------4-------4---5----4----------------
    4|------------5---7-------7-------------------------------
    5|-------------------------------------------------5-----7-
    6|-----------------------------------------------------------
    เล่น 2 ครั้ง

    ท่อน SOLO
    1|-----------------------------------------------------------------------------
    2|----------------12-----------12-----13------12-------------------------
    3|-12----14-----------14---------------------------------------------------
    4|-------------------------------------------------------------12-----14------
    5|------------------------------------------------------------------------------
    6|-------------------------------------------------------------------------------

    1|------------------------------------------------------------------------------------------------
    2|-----------------12----------12-----13-----12-------------------12----------------------
    3|-12----14----------14-----------------------------14-----12----------14-----14----
    4|--------------------------------------------------------------------------------------------------
    5|-------------------------------------------------------------------------------------------------
    6|------------------------------------------------------------------------------------------------

    1|---------------------------------------------------------------------------------------------------------
    2|---------------------------------------------------------------------------------------------------------
    3|-------------------------------------------------12----------------------12---14----12------------
    4|-12---12---12~14----14~15-----15----------15---14---15---------------------15--15-
    5|----------------------------------------------------------------------------------------------------------
    6|----------------------------------------------------------------------------------------------------------

    1|---------------------------------------------------------------------------------13~~15~~~~~-
    2|------------------------------------------------------------------------12--13-----------------
    3|-12---14--15---14----12----------------------------------12-----------------------------
    4|------------------------------------15---15-----14--15--------------------------------------
    5|---------------------------------------------------------------------------------------------------
    6|--------------------------------------------------------------------------------------------------
    ((อัพเดทคอร์ดกีต้าร์))
  • K.J.Boy
    Guest
  • 30 ก.ค.2547,03:36น.
    แกะสุดๆแล้วครับ ทำได้แค่เนี้ย อาจผิดบ้างคงไม่ว่ากัน  
    ถ้าผิดตรงไหนหรือมีอะไรเพิ่มเติมก็ขอคำชี้แนะด้วยครับ
    เพิ่งแกะเป็นครั้งแรกก็เป็นเงี๊ยะแหละ
    ((อัพเดทคอร์ดกีต้าร์))
  • 0000
    Guest
  • 25 มี.ค.2548,00:15น.
    ท่อน Intro
    1|-----------------------------------------------------------
    2|-----------------------------------------------------------
    3|---------------------5-------5---6----5----------------
    4|------------5---7-------7-------------------------------
    5|-------------------------------------------------5-----7-
    6|-----------------------------------------------------------
    เล่น 2 ครั้ง
    แก้อินโทรหน่อย
  • tamkai 306
    Guest
  • 8 ต.ค.2548,20:25น.
    Solo

    5; ---5-7-9-7-9-10-9
    6; ------------------------5-7

    5; --5-7-9-7-9-10-9--7-5/9-7-7-7-----------4-5/7-5-4-5-7/9-7-5-5-7-9-10-9-7-5-5-4-5
    6; --------------------------------------- 5-5-5-7

    4; --7-9
    3; -------7-9
    2; -------------^8
  • สสส
    Guest
  • 28 ต.ค.2548,10:59น.
    ใครแกะโซโล่ไม่น้อยกว่าใครได้ช่วยสอนเราที
    ((ขอคอร์ดกีต้าร์))
  • สสส
    Guest
  • 28 ต.ค.2548,11:00น.
    ใครแกะโซโล่ไม่น้อยกว่าใครได้ช่วยสอนเราที
    ((ขอคอร์ดกีต้าร์))
  • BAD ร.บ
    Guest
  • 26 พ.ย.2548,20:17น.

    Tab รอบยิ้มนักสู้ ด้วยคร้าบบบบ
    ((ขอคอร์ดกีต้าร์))
  • กนกอร
    Guest
  • 13 ม.ค.2549,17:36น.
    เพราะมากๆอยากทำเป็นเสียงเรียกเข้า โทร.orange ไม่ทราบว่าใครพอจะช่วยได้บ้างค่ะ
  • tin
    Guest
  • 28 ม.ค.2549,19:23น.
    s]jv
    ((ขอคอร์ดกีต้าร์))
  • ฮษณื?
    Guest
  • 28 ม.ค.2549,23:07น.
    เจ๋งโคตร  เอาอีกนะ
  • นัท บ้านใหม่
    Guest
  • 31 ม.ค.2549,13:07น.
    เป็นเพลงที่ผมชอบมากกกกกกกกเเละผมก็เอากีต้าร์มาเล่นเป็นประจำ

ขอเชิญร่วมแสดงความคิดเห็นครับ

คลิกที่รูป เพื่อแทรกรูปลงในข้อความ
  • Member :
    username
    password
  • Not a member :
    name
    email