Loading

เพลง ใช่ฉันหรือเปล่า

กะลา

อัพโหลดคลิปเพลงนี้ที่คุณ ร้อง/เล่น ด้วยตัวคุณเอง ได้แล้ววันนี้
ระหว่างการทดสอบระบบหากพบข้อผิดพลาด กรุณาแจ้งที่นี่
ใช่ฉันหรือเปล่า
INTRO : E / EG# / C#m / C#m / A / B7 / E / B7 ( 2 Time )
E G#m C#m A B7 E A
ลืมตามองฉันให้ดี..อีกครั้ง ความจริงความฝัน ต่างกัน..แค่ไหน รักที่
B7 G#m C#m A B7 E B7
เธอต้องการ ผู้ชายในฝัน..ในใจ ตอบตัวเองได้ไหม ใช่ฉันหรือเปล่า
E G#m C#m A B7 E A
เธออายใครไหมที่เดินกับฉัน จับมือกับฉัน ภูมิใจ...บ้างไหม ฉันจะ
B7 G#m C#m A B7 E E7
ยอมรับฟัง หากเธอไม่แน่ใจ ก็จะพร้อมทำตามหัวใจของเธอ
A B7 E E7 A B7 E E7
* ไม่ได้เลิศหรู แค่คนบนพื้นดินทราย ไม่ใช่เจ้าชาย ที่มีให้เธอได้ทุกสิ่ง
A B7 G#m C#m A B7
มีเพียงสองมือ ที่พร้อมจะทำเพื่อเธอด้วยรักจริง ไม่มีวันจะทิ้ง ให้เธอต้อง
E B7
เสียใจ
E G#m C#m A B7 E A
เธออายใครไหมที่เดินข้างฉัน สบตากับฉันอุ่นใจแค่ไหน แม้ยังไม่ดี
G#m C#m A B7 E
พอ ก็ไม่ต้องเกรงใจ อยากจับมือกับฉันเรื่อยไปหรือเปล่า
SOLO : E / G#m / C#m / C#m / A / B7 / E / A / B7 / G#m / C#m /
A / B7 / E / E7
ซ้ำ ( * )
ดาวน์โหลด Full Song
กด *424243081376584
กด *424243081376584
ดาวน์โหลด Truetone
กด *424218081376584
กด *424218081376584
กด *424218081376584
ดาวน์โหลด Poly
กด *424214081376584
กด *424214081376584
กด *424214081376584
ดาวน์โหลด Mono
กด *424211081376584
กด *424211081376584
กด *424211081376584
* อัตราค่าบริการดาวน์โหลด Fullsong, Truetone, Poly, Mono : 35 บาท/เพลง
ส่งเพลงนี้ให้เพื่อน
วันที่โพสต์ : 4 ต.ค.2549,01:06น. 203.150.118.129
จำนวนผู้ชม : 179819 คน / แสดงความคิดเห็น : 87 ครั้ง
โพสต์โดย


จาก: เปรมปรี
เข้าร่วม: 8 ปีก่อน
เพลง: 2
โพสต์: 8
เพลงแนะนำ
เพลงฮิต
เลือกแสดงเฉพาะ :

  • ยาหม่องตราลิง
    Guest
  • 4 ต.ค.2549,18:41น.
    คอร์ดยากมากเลยนะค่ะ 
  • mum marujo
    Guest
  • 4 ต.ค.2549,20:52น.
    ขอ Tab หน่อย  พลีสสสสสสสสสสสสสสสสสสส
  • รุต สามเสน
    Guest
  • 4 ต.ค.2549,22:06น.
    Solo
    1.)----------------------------------------------------------------------------------------------------------
    2.)---------------------------------12---------------------------------------------------------------12---
    3.)--/9-9---11--13-----/9-9-------13----/9-9---11---13------/9h11-9h11--9h11----------
    4.)----------------------------------------------------------------------------------------------------------
    5.)----------------------------------------------------------------------------------------------------------
    6.)----------------------------------------------------------------------------------------------------------
    ต่อ

    1.)---------------------------------------------------------------------------------------------------------
    2.)---------------------------------------------------------------------------------------9-9/10---------
    3.)--13----11--9---------9------9---------------------------------------9h11------------------------
    4.)-------------------/11------9------7---6/7--6---/9---------4h6---------------------------------
    5.)---------------------------------------------------------------------------------------------------------
    6.)---------------------------------------------------------------------------------------------------------


    1.)----------12-12---11-11-------11h12---15^-15^----15---19--------------------------------
    2.)-12-12----------------------12-----------------------------------------17-17----16-17-16--14-
    3.)---------------------------------------------------------------------------------------------------------
    4.)---------------------------------------------------------------------------------------------------------
    5.)---------------------------------------------------------------------------------------------------------
    6.)---------------------------------------------------------------------------------------------------------


    1.)----------------------------------------------------------------------------------------------------------
    2.)----------------------------------------------------------------------------------------------------------
    3.)--16-16---14h16-14--13h14-13-----------------------------16--------------------------------
    4.)--------------------------------------------16---/14-16-18-19---------18-------------------------
    5.)----------------------------------------------------------------------------------------------------------
    6.)----------------------------------------------------------------------------------------------------------

    ช่วงนี้ปั่นสาย(เล่นเร็วด้วย)
    1.)---------------------------------------------16-17-19~----------------------------------------------
    2.)-------------------------------16-17-19--------------------------------------------------------------
    3.)----------------14-16-18-----------------------------------------------------------------------------
    4.)--14-16-18-------------------------------------------------------------------------------------------
    5.)----------------------------------------------------------------------------------------------------------
    6.)----------------------------------------------------------------------------------------------------------
    คำอธิบาย
    ~ = สั่นสาย
    / = สไลด์
    h = hamer on
    ^ = ดั่นสายขึ้น
  • นายมะเขือ
    Guest
  • 4 ต.ค.2549,22:10น.
    นายแกะได้เนียนมาก
    ((ขอคอร์ดกีต้าร์))
  • 555
    Guest
  • 5 ต.ค.2549,01:40น.
    ขอ tap bass หน่อยงับ
  • mooparrmai
    Guest
  • 5 ต.ค.2549,22:04น.
    กำลังอยากได้พอดีเลย  ดีมากคะ 
  • luffy
    Guest
  • 6 ต.ค.2549,00:34น.
    เพราะจริงจริ๊ง  
    ขอแทบIntroด้วยคร้าบพี่รุต สามเสน
  • lamborghini
    Guest
  • 6 ต.ค.2549,00:35น.
    นาย รุต แกะได้ เหมือนมาก เด็ก สามเสนเก่งกันทุกคนเลยหรอ
  • ปูคุง
    Guest
  • 6 ต.ค.2549,01:05น.
    อ่านแทบไม่เป็นครับใครใจดีช่วยสอนหน่อยนะครับ
    ((ขอคอร์ดกีต้าร์))
  • the man is dog
    Guest
  • 6 ต.ค.2549,05:51น.
    งั้นก็โง่ต่อไปซะ อ่านแท็บไม่เป็น         มีปัญหาเรื่องกีต้าร์ปรึกษาได้นะจ๊ะ 
  • LP
    Guest
  • 6 ต.ค.2549,15:45น.
    ไม่รู้จักSOLOบอกได้ไหม
    ((ขอคอร์ดกีต้าร์))
  • 132
    Guest
  • 6 ต.ค.2549,20:48น.
    hamer on คืออะไรครับ
  • น้ำค่ะ
    Guest
  • 7 ต.ค.2549,02:29น.
    ชอบเพลงนี้มากค่ะ   
  • ม็อบนะครับ
    Guest
  • 7 ต.ค.2549,03:13น.
    ใครไม่รู้จักSoloฮะ
    Soloคือท่อนที่เป็นช่วงกลางเพลงที่นักร้องจะหยุกร้องแล้วกีตาร์จะเล่นเมโลดี้เป็นตัวโน๊ต
    ที่เอามาโพลสกันนี่ไม่ใช่โน๊ตสากลนะ
    แต่คือ แท๊ปกีตาร์ เฉพาะกีตาร์เท่านั้นที่อ่านแท็บนี้
    การอ่านก็ 1) นี่คือสายกีตาร์ -----------------------------------
    2) นี่คือสายกีตาร์-----------------------------------
    3)นี่คือสายกีตาร์-----------------------------9--------(เลข9คือจุดที่กดบนเฟรตที่คอกีตาร์)

    อ่านตามแท๊ปนี่ก็คือให้จับสายที่3ช่องที่9ครับผม
    อ่านอย่างนี้แหละเลขข้างหน้าสุดคือสายของกีตาร์เลข1คือสายล่างสุดและเลข6คือสายบนสุดไล่ขึ้นมาตามลำดับนะส่วนเลขตามมาจากสายเราต้องดูว่าเลขไหนมาก่อนก็เล่นเส้นนั้นก่อนแล้วไล่ไปจนจบท่อน
    Soloนะ

  • ม็อบนะครับ
    Guest
  • 7 ต.ค.2549,03:43น.
    เพลงนี้ใช้กีตาร์กี่ตัวเหรอครับสงสัย
    เสียงตอนตีคอร์ดกับอินโทรน่ะมันเป็นเสียงกีตาร์โปร่ง
    แต่ตอนโซโล่เป็นเสียงไฟฟ้าอ่ะงงครับ
  • amp
    Guest
  • 7 ต.ค.2549,12:58น.
    ผมขอ tab เพลง ไม่กล้าบอกเธอของ นูโว มีมั้ยคับ อยากได้มากเลย 
  • L.S.I
    Guest
  • 7 ต.ค.2549,15:47น.
    อยากได้ Intro
    ((ขอคอร์ดกีต้าร์))
  • คนอ่อนๆๆ
    Guest
  • 7 ต.ค.2549,19:12น.
    ผมแกะได้ละเด๋วว่างๆเอามาลงคับ
  • คนอ่อนๆๆ
    Guest
  • 7 ต.ค.2549,19:19น.
    ---------------------1----0------------------------------------------------------------------------------------
    ------5-h-6---6----------------------------------------------------------------------------------------------------5---------5---------------------------------------------------------------------------------------------------------------------------------------------------------------------------------------------------------------------------------------------------------------------------------------------------------------------------------------------------------------------------------------------------------------------------------------------- เอาไปแค่นี้ก่อนน่ะ เขียนยากวะ 3 รอบ
  • คนอ่อนๆๆ
    Guest
  • 7 ต.ค.2549,19:21น.
    ---------------------1---0----------------
    ----5 h 6----6--------------------------------
    ----5---------5--------------------------
    ----------------------------------------
    ----------------------------------------
    ---------------------------------------
  • ไม่รุจิงๆ(และไม่ค่อยเก่ง)
    Guest
  • 7 ต.ค.2549,22:19น.
    hamer on   คืออะไรหรอ คับช่วย บอกหน่อยครับ  (ขอบคุณมากคับ)
    ถ้าสงสัยเพลงอื่น แอดมาได้นะงับ m วง superBlacK siwat_842hotmail.com
  • no name
    Guest
  • 8 ต.ค.2549,16:52น.
    ขอ Intro ได้มั้ยคับเอาเนียนๆ
    ((ขอคอร์ดกีต้าร์))
  • คนอ่อนๆๆ
    Guest
  • 8 ต.ค.2549,19:16น.
    --------------------2----0-----------------
    ------4-h-5--5-----------------------------
    ------4-------4--------------------------
    -----------------------------------------
    -----------------------------------------
    ----------------------------------------
    แบบนี้3รอบก่อนน่ะแบบนี้ชัวคับ อานบนเขียนผิดไปนิด เด๋วผมมาโพสใหม่น่ะมานเขียนลำบาก
  • รุต สามเสน
    Guest
  • 9 ต.ค.2549,20:46น.
    Intro
    1.)---------------2-------------------2--------------------2--------------------2-------------------------
    2.)-------4h5-------5--------4h5------5--------4h5------5---------4h5-----5----2h4-----2------
    3.)------------------------------------------------------------------------------------------------4--------
    4.)----------------------------------------------------------------------------------------------------------
    5.)----------------------------------------------------------------------------------------------------------
    6.)---0--------------------0-------------------0--------------------0-------------------------------------


    1.)--------------0------------------------------2----------------------------------------------------------
    2.)------4/5--------5/4--------------5------4----------------------------------------------------------
    3.)-----------------------------------4---------4----------------------------------------------------------
    4.)----------------------------------------------2----------------------------------------------------------
    5.)--0-------------------------2----------------2---------------------------------------------------------
    6.)-----------------------------------------------x---------------------------------------------------------
    เล่น2รอบน่ะ
  • Roronoa zolo
    Guest
  • 9 ต.ค.2549,20:48น.
    ขอบคุณคร้าบ  
  • Perm
    Guest
  • 9 ต.ค.2549,22:14น.
    แก้ให้นะเพราะคอร์ดของเก่ามันวางไม่ตรงจุด
    ใช่ฉันหรือเปล่า
    ศิลปิน : กะลา
    ใช่ฉันหรือเปล่า

    INTRO : E / G#m / C#m / A / B7 / E / B7 ( 2 Times )

    E G#m C#m A B7 E

    ลืมตามองฉันให้ดี..อีกครั้ง ความจริงความฝัน ต่างกัน..แค่ไหน

    A B7 G#m C#m A B7 E / B7

    รักที่ เธอต้องการ ผู้ชายในฝัน..ในใจ ตอบตัวเองได้ไหม ใช่ฉันหรือเปล่า

    E G#m C#m A B7 E

    เธออายใครไหมที่เดินกับฉัน จับมือกับฉัน ภูมิใจ...บ้างไหม

    A B7 G#m C#m A B7 E / E7

    ฉันจะยอมรับฟัง หากเธอไม่แน่ใจ ก็จะพร้อมทำตามหัวใจของเธอ

    A B7 E /E7 A B7 E / E7

    (*) ไม่ได้เลิศหรู แค่คนบนพื้นดินทราย ไม่ใช่เจ้าชาย ที่มีให้เธอได้ทุกสิ่ง

    A B7 G#m C#m A B7 E / B7

    มีเพียงสองมือ ที่พร้อมจะทำเพื่อเธอด้วยรักจริง ไม่มีวันจะทิ้ง........... ให้เธอต้องเสียใจ



    E G#m C#m A B7 E A

    เธออายใครไหมที่เดินข้างฉัน สบตากับฉันอุ่นใจแค่ไหน แม้ยังไม่ดีพอ


    G#m C#m A B7 E

    ก็ไม่ต้องเกรงใจ อยากจับมือกับฉันเรื่อยไปหรือเปล่า



    SOLO : E / G#m / C#m / C#m / A / B7 / E / A / B7 / G#m / C#m / A / B7 / E / E7 ซ้ำ ( * )



  • lucky
    Guest
  • 9 ต.ค.2549,23:12น.
    Intro
    1.)---------------2-------------------2--------------------2--------------------2-------------------------
    2.)-------4h5-------5--------4h5------5--------4h5------5---------4h5-----5----2h4-----2------
    3.)------------------------------------------------------------------------------------------------4--------
    4.)----------------------------------------------------------------------------------------------------------
    5.)----------------------------------------------------------------------------------------------------------
    6.)---0--------------------0-------------------0--------------------0-------------------------------------


    1.)--------------0------------------------------2----------------------------------------------------------
    2.)------4/5--------5/4--------------5------4----------------------------------------------------------
    3.)-----------------------------------4---------4----------------------------------------------------------
    4.)----------------------------------------------2----------------------------------------------------------
    5.)--0-------------------------2----------------2---------------------------------------------------------
    6.)-----------------------------------------------x---------------------------------------------------------
    เล่น2รอบน่ะ
  • คนอ่อนๆๆ 2-1= 0
    Guest
  • 10 ต.ค.2549,01:48น.
    ผมว่าผมแกะเหมือนกว่าน่ะยังไงรออีกแปปน่ะคับ
  • เต้ย กีต้าร์ห่วย
    Guest
  • 10 ต.ค.2549,17:41น.
    ผมอยากทราบวีธีการจับคอดกีต้านะคับขอหน่อยนะคับ คอด EG# นะคบ  
    ((ขอคอร์ดกีต้าร์))

ขอเชิญร่วมแสดงความคิดเห็นครับ

คลิกที่รูป เพื่อแทรกรูปลงในข้อความ
  • Member :
    username
    password
  • Not a member :
    name
    email