Loading

ŧ ѡ

Ū (Clash)

ѾŴԻŧس ͧ/ µǤسͧ ѹ
ҧ÷ͺкҡͼԴҴ س駷
俷..ʹѺ ѧ.. ѡ Ѻ..ͼѹ Ѻѹ..ѧ͹ 
¨÷ӡ׹ ҷҨ͹׹ ͤºҧѹ ׹ͤѡ
ӴšѺ ѧ¤ Ѻ˹觤ѡ

ѧѡ㨡ѡѧ͹çѺ ҹѧ͹ ʹ Ѻѡͧ

§..褹»ͺ ͪ.. Ѻӵ.. ͹..ͧ
¨÷ӡ׹ ҷҨ͹׹ ͤºҧѹ ׹ͤѡ
ӴšѺ ѧ¤ Ѻ˹觤ѡ

ѧѡ㨡ѡѧ͹çѺ ҹѧ͹ ʹ Ѻѡͧ

... ...

...

ѧѡ㨡ѡѧ͹çѺ ҹѧ͹ ʹ Ѻѡͧ

ѧѡ㨡ѡѧ͹çѺ ҹѧ͹ ʹ Ѻ繷յͧ(ç㨤Ѻ ͧҡ)
(Ҩ໹)(Ѻ繷յͧ ѹš)
ǹŴ Truetone
*424218103176584
*424218103176584
*424218103176584
ǹŴ Poly
*424214103176584
*424214103176584
*424214103176584
ǹŴ Mono
*424211103176584
*424211103176584
*424211103176584
* ѵҤҺԡôǹŴ Fullsong, Truetone, Poly, Mono : 35 ҷ/ŧ
ŧ͹
ѹʵ : 22 ..2548,23:02. 221.128.88.248
ӹǹ : 258311 / ʴԴ : 328
ʵ


ҡ:
: 9 ա͹
ŧ: 0
ʵ: 2
ŧй
ŧԵ
͡ʴ੾ :

  • joker_arm
    Guest
  • 23 ..2548,00:32.
    ǻѧŧ˹¹ФѺ
  • guitar pink
    Guest
  • 23 ..2548,01:04.
    ǹ 
    ((յ))
  • music
    Guest
  • 23 ..2548,08:42.
    ҡѧҡ¤Һ
  • amm(love P'Pon)
    Guest
  • 23 ..2548,08:55.
    ҡѧҡ  ҹҹ  ֡  ͡˹ ա


    ѡŪ


    ੾ ش


    Ūѧ䧡ͤ͹Թ


    źҧἧ Ҵ
    ((յ))
  • 23 ..2548,09:34.
    дչ^__^

  • Guest
  • 23 ..2548,10:37.
    ź ѧ¿ѧ 
    ѧ˹
    ((յ))

  • Guest
  • 23 ..2548,19:01.
    ѧѧ Һ clash ҡ շءź duk5827hotmail.com

  • Guest
  • 23 ..2548,19:02.
    ҡ duk5827hotmail.com
  • Ū
    Guest
  • 23 ..2548,21:32.
    ѧ˹º͡ФѺ ҡѧ㨨ТҴ!!


  • 23 ..2548,21:33.
    ҡѧѧ 
  • ش
    Guest
  • 24 ..2548,14:21.
    ѧ ԷؤѺ Ѵ èadd Сҹ
  • ش ariya_23@hotmail.com
    Guest
  • 24 ..2548,14:22.
    *Է Ѻ Hotwave 

  • Guest
  • 24 ..2548,15:43.
    ҡҡ snoopydog_za55hotmail.com 
  • лᴧ
    Guest
  • 24 ..2548,16:48.
    ͡͹˹Ѻ ͡
    ( ͺ մյѹ⤵ ŧشʹ )
  • ....
    Guest
  • 24 ..2548,17:16.
    ͹شѹͧѺ鹷յͧѴ駹
  • G
    Guest
  • 24 ..2548,17:25.
    ѧǤѺ ЪѴ Сѹ

    ҹ "ѡ" "" ѹѺ ?
  • V
    Guest
  • 24 ..2548,17:47.
    ͹ФѺ 
  • 12345
    Guest
  • 24 ..2548,17:48.
    ͹ФѺ 
    chonnawee4hotmail.com
  • ش
    Guest
  • 24 ..2548,18:35.
    ѡ Ѻ һŧ㹻 ŧԴ -*-
  • ԧ
    Guest
  • 24 ..2548,18:51.
    Ţ Ŵ

  • Guest
  • 24 ..2548,20:10.
    duk5827hotmail.com ʹ¹ФѺ
  • yo_t
    Guest
  • 24 ..2548,20:55.
    ͹ B
  • yo_t
    Guest
  • 24 ..2548,21:09.
    intro

    1]-------------------------------------------------------
    2]-----3---------3-----------------3----------3-------
    3]-------0---------0--------0-----------0-------------
    4]----------4---------4--------4-----------4----------
    5]--2---------2----------2-----------2----------------
    6]-------------------------------------------------------

    ͺ

    B G
    1]---x-x---x--x--------x------------------------------------
    2]---x-x---x--x--------7--6-----------------------------
    3]---x-x---x--x--------x--x-----------------------------
    4]--4-4---4--4--------5-4-----------------------------
    5]--2-2---2--2--------x--------------------------------
    6]-------------------------------------------------------

    ١
  • joker_arm
    Guest
  • 25 ..2548,03:34.
          俷..ʹѺ
    ѧ..
    ѡ Ѻ..
    ͼѹ Ѻѹ..ѧ͹

    *¨÷ӡ׹
    ҷҨ͹׹
    ͤºҧѹ
    ׹ͤѡ
    ӴšѺ
    ѧ¤
    Ѻ˹觤ѡ

    ****ѧѡ
    ѡѧ͹çѺ
    ҹѧ͹ ʹ
    Ѻѡͧ (Ѻ繷յͧ)

    §..褹»ͺ
    ͪ..
    Ѻӵ..
    ͹..ͧ

    ... ...

    ...
    ((յ))
  • 25 ..2548,10:57.
    ѧѡ㨡ѡѧ͹çѺ ҹѧ͹ ʹ Ѻѡͧ 

    ѧѡ㨡ѡѧ͹çѺ ҹѧ͹ ʹ Ѻ繷յͧѴ ҹmp 3 Ѻ ѴҨҡͷǿѧѧҹ໧ѧ 㨹
  • ѷ
    Guest
  • 25 ..2548,11:54.
    Դ֧..괴 
    ((յ))
  • 26 ..2548,11:34.
      ҹ 
    Ūҡ
    ҡѧ Link
    nanakodvtyahoo.com Ѵ


  • 26 ..2548,17:57.
    ҡѧ ˹
    sittaponhotmail.com ͺس

ԭʴԴ繤Ѻ

ԡٻ áٻŧ㹢ͤ
  • Member :
    username
    password
  • Not a member :
    name
    email