Loading

เพลง ไม่มีใครแทนใครได้

เอ็ม อรรถพล

อัพโหลดคลิปเพลงนี้ที่คุณ ร้อง/เล่น ด้วยตัวคุณเอง ได้แล้ววันนี้
ระหว่างการทดสอบระบบหากพบข้อผิดพลาด กรุณาแจ้งที่นี่

เธอไม่บอกก็จะไม่ถาม เขานั้นทำอะไรเธอมา

ฉันดูจากน้ำตาที่มี แผลเธอวันนี้บอกแทนได้ทุกอย่าง

ก็แค่อยากให้เธอระบาย ไม่ต้องอายเราเคยเป็นใคร

ร้องไปเถอะ แม้ในวันนี้

ฉันไม่ได้มีสิทธิ์เช็ดน้ำตาที่แก้มเธอ


* จะทำตัวเหมือนเป็นอากาศ ไม่รบกวนหัวใจ

จะไม่ไปสัมผัสถูกร่างกายใดๆ

แค่เพียงจะอยู่ข้างเธอเป็นคนสุดท้าย


** ฉันไม่ได้หวังทำดีให้เธอมารักกัน

ห่วงเธอก็แค่นั้น

ไม่ได้คิดฝันอะไรอื่นไกล

ฉันไม่ได้หวังมาแทนที่คนที่ทิ้งเธอ

ก็ตัวฉันรู้และย้ำตัวเองในใจ

เรื่องรักไม่มีใครแทนใครได้ (อยู่แล้ว)


เริ่มต้นใหม่มันยังไม่สาย

แผลที่ใจเป็นธรรมดา

เนิ่นนานกว่าร่องรอยที่มี

จะหายคืนและดีสิ่งนี้เธอคงได้เข้าใจ


( * , ** )


แต่ถ้าเธอเหนื่อยล้า จนอยากหาใคร

มาช่วยประคองใจไว้ ถ้าเธอไม่ถือ

ฉันเองก็พร้อม จะโอบกอดเธอด้วยใจ


( * , ** )




ดาวน์โหลด Full Song
กด *424243098236584
กด *424243098236584
ดาวน์โหลด Truetone
กด *424218098236584
กด *424218098236584
กด *424218098236584
ดาวน์โหลด Poly
กด *424214098236584
กด *424214098236584
กด *424214098236584
ดาวน์โหลด Mono
กด *424211098236584
กด *424211098236584
กด *424211098236584
* อัตราค่าบริการดาวน์โหลด Fullsong, Truetone, Poly, Mono : 35 บาท/เพลง
ส่งเพลงนี้ให้เพื่อน
วันที่โพสต์ : 27 ก.ย.2550,07:39น. 124.157.141.202
จำนวนผู้ชม : 159621 คน / แสดงความคิดเห็น : 51 ครั้ง
โพสต์โดย


จาก: เติ้ล
เข้าร่วม: 8 ปีก่อน
เพลง: 0
โพสต์: 6
เพลงแนะนำ
เพลงฮิต
เลือกแสดงเฉพาะ :

  • มือกีตาร์ชายแดนภาคใต้
    Guest
  • 27 ก.ย.2550,13:30น. 117.47.37.121
    เท่าที่ฟัง น่าจะ Key C Major นะครับ ลองเริ่มด้วยคอร์ด Fmaj7 ดูนะครับ
  • GMO-gossip
    Guest
  • 27 ก.ย.2550,21:43น. 124.120.166.110
    เพราะดีครับ แต่ท่าทางจะเล่นยาก - -*
  • มือกีตาร์ชายแดนภาคใต้
    Guest
  • 29 ก.ย.2550,17:20น. 222.123.6.167
    หรือจะเป็น Key F นะ บอกผิด
  • ปอน
    Guest
  • 29 ก.ย.2550,17:21น. 125.27.223.99
    แห 1-10 ทุกเพลง เลย
  • ชาย
    Guest
  • 30 ก.ย.2550,08:05น. 222.123.192.209
    จะทำตัวเหมือนเป็นอากาศ ไม่รบกวนหัวใจ
    จะไม่ไปสัมผัสถูกร่างกายใดๆ
    แค่เพียงจะอยู่ข้างเธอเป็นคนสุดท้าย


    โอ้ววววววววว
  • ปอน
    Guest
  • 1 ต.ค.2550,16:57น. 125.27.221.15
    [ แม้ในวันนี้ฉันไม่มีสิทธิจะเช็ดน้ำตาที่แก้วเธอ ]


    ผู้ตอบคนที่ 5
  • คนฟังเพลง
    Guest
  • 4 ต.ค.2550,15:50น. 124.157.185.17
    ใครเป็นคนเขียนเพลงนี้ครับ บอกหน่อยดิ เนื้อดีมาก ๆๆๆๆๆๆๆๆ
  • หนุ่ม
    Guest
  • 5 ต.ค.2550,12:47น. 222.123.116.234
     มือใหม่หัดแกะ ยังงัยก็ติชมได้ครับ 

    ไม่มีใครแทนใครได้

    G Em Am D
    เธอไม่บอกก็จะไม่ถาม เขานั้นทำอะไรเธอมา
    C Bm Am D
    ฉันดูจากน้ำตาที่มี แผลเธอวันนี้บอกแทนได้ทุกอย่าง
    G Em Am D
    ก็แค่อยากให้เธอระบาย ไม่ต้องอายเราเคยเป็นใคร
    C Bm Am D
    ร้องไปเถอะ แม้ในวันนี้ ฉันไม่ได้มีสิทธิ์เช็ดน้ำตาที่แก้มเธอ
    C Bm Am G
    * จะทำตัวเหมือนเป็นอากาศ ไม่รบกวนหัวใจ จะไม่ไปสัมผัสถูกร่างกายใดๆ
    C Am D
    แค่เพียงจะอยู่ข้างเธอเป็นคนสุดท้าย

    G Bm Em Am
    ** ฉันไม่ได้หวังทำดีให้เธอมารักกัน ห่วงเธอก็แค่นั้น
    C D G Bm Em
    ไม่ได้คิดฝันอะไรอื่นไกล ฉันไม่ได้หวังมาแทนที่คนที่ทิ้งเธอ
    Am Bm C D G
    ก็ตัวฉันรู้และย้ำตัวเองในใจ เรื่องรักไม่มีใครแทนใครได้ (อยู่แล้ว)

    G Em Am D
    เริ่มต้นใหม่มันยังไม่สาย แผลที่ใจเป็นธรรมดา
    C Bm Am D
    เนิ่นนานกว่าร่องรอยที่มี จะหายคืนและดีสิ่งนี้เธอคงได้เข้าใจ

    ( * , ** )
    Em Bm C D Em Bm
    แต่ถ้าเธอเหนื่อยล้า จนอยากหาใคร มาช่วยประคองใจไว้ ถ้าเธอไม่ถือ
    C D Em
    ฉันเองก็พร้อม จะโอบกอดเธอด้วยใจ
    ( * , ** )




  • 5 ต.ค.2550,16:19น. 210.203.169.50
    ฟังแล้วเพราะมากโดนมาก
  • ...
    Guest
  • 8 ต.ค.2550,23:13น. 203.113.50.12
    ขอแท็ปกีตาร์ครับ
  • เนม
    Guest
  • 9 ต.ค.2550,20:31น. 125.24.42.63
    คุณฟองเบียร์แต่งทั้งแน้อร้อง ทำนองค่ะ
  • โดนมากๆ
    Guest
  • 10 ต.ค.2550,01:41น. 203.113.60.12
    ชอบเพลงนี้มากๆๆเลย......ฟังแล้วจะร้องไห้- -
  • 11 ต.ค.2550,21:31น. 125.25.157.161
    ไม่มีใครแทนใครได้ - เอ็ม อรรถพล
    Intro: F Am / Bb Am/ Gm Am / Bb C
    F Am Bb Am
    เธอไม่บอกก็จะไม่ถาม เขานั้นทำอะไรเธอมา
    Dm C Bb C
    ฉันดูจากน้ำตาที่มี แผลเธอวันนี้บอกแทน ได้ทุกอย่าง
    F Am Bb Am
    ก็แค่อยากให้เธอระบาย ไม่ต้องอายเราเคยเป็นใคร ร้องไปเถอะ
    Dm C Bb C
    แม้ในวันนี้ ฉันไม่ได้มีสิทธิ์เช็ดน้ำตาที่แก้มเธอ
    Bb Am
    (*)จะทำตัวเหมือนเป็นอากาศ ไม่รบกวนหัวใจ จะไม่ไปสัมผัสถูกร่างกายใดๆ
    Bb Am Gm C
    แค่เพียงจะอยู่ข้างเธอ เป็นคนสุดท้าย
    F Am Dm Gm GmM7 Gm7 C
    (**)ฉันไม่ได้หวังทำดีให้เธอมารักกัน ห่วงเธอก็แค่นั้นไม่ได้คิดฝันอะไรอื่นไกล
    F Am Dm Gm Am
    ฉันไม่ได้หวังมาแทนที่คนที่ทิ้งเธอ ก็ตัวฉันรู้และย้ำตัวเองในใจ
    Bb C
    เรื่องรักไม่มีใครแทนใครได้อยู่แล้ว

    Solo : F Am / Bb Am/ Gm Am Bb C
    F Am Bb Am
    เริ่มต้นใหม่มันยังไม่สาย และที่ใจมันธรรมดาเนิ่นนาน
    Dm C Bb C
    กว่าร่องรอยที่มี จะหายคืนและดี สิ่งนี้เธอคงได้เข้าใจ

    (*) (**)
    Bb Am Gm F
    แต่ถ้าเธอเหนื่อยล้า จนอยากหาใคร มาช่วยประคองใจไว้
    Bb Am Gm C
    ถ้าเธอไม่ถือ ฉันเองก็พร้อม จะโอบกอดเธอด้วยใจ
    Solo: Bb / Am / Gm C / F / Bb / Am / Gm / C
    (*)(**)

    Outro: F Am / Bb Am/ Gm Am / Bb C
  • 16 ต.ค.2550,13:50น. 125.24.245.202
    ไม่ต้องอายเราเคยเป็นใคร
    ร้องไปเถอะ แม้ในวันนี้
    ฉันไม่ได้มีสิทธิ์เช็ดน้ำตาที่แก้มเธอ <ปล.โดนสุดครับ>
    ของเค้าดีจิงๆ ชอบมั่กๆ คับ ~*
  • chacha
    Guest
  • 19 ต.ค.2550,20:36น. 58.8.192.38
    ขอบคุนคับ
  • Zero
    Guest
  • 19 ต.ค.2550,22:10น. 124.120.237.167
    เพราะมาก ฟังแล้วซึ้งจริงๆ
  • ...
    Guest
  • 22 ต.ค.2550,11:58น. 124.157.148.180
    เพลงนี้ได้ข่าวว่าเป็นประสบการณ์จิงของพี่เอ็มอ่ะคับ
  • 22 ต.ค.2550,15:59น. 203.113.51.103

    แกะแทปมาฝากคับ

    ฮัมๆดู หาเมโลดี้ไกล้คอร์ดดุ

    ลองไปเล่นดุนะ

    ไม่เหมือนไม่ต้องว่า



    Intro: F Am / Bb Am/ Gm Am / Bb C /

    4ห้องนะคับ กดคอร์ดเรยนะ


    ห้อง 1 /F Am/

    1-----------------------1-----|----0----------0h1---------- |
    2--- 0h1--------------------|--------1-------------0-------|
    3------------2----------------|-----------2-------------------|
    4-----------------3-----------|--------------------------------|
    5------------------------------|----0--------------------------|
    6-----1-----------------------|--------------------------------|


    ห้อง 2 /Bb9 Am/

    1-----------------------1-----|----0------------3---1---0--|
    2----0h1--------------------|---------1---------------------|
    3------------3----------------|------------2-----------------|
    4-----------------3-----------|-------------------------------|
    5-----1-----------------------|----0-------------------------|
    6------------------------------|-------------------------------|


    ห้อง 3 /Gm Am/

    1------------------------------|---------------------0h2p0-------|
    2------------------3----------|-----------------3--------------3---|
    3-------------3--------3-----|-------------2-----------------------|
    4---------5-------------------|---------2--------------------------|
    5------------------------------|----0-------------------------------|
    6----3------------------------|-------------------------------------|


    ห้อง 4 /Bb C/

    1-------------0---1-----1h3p1---0---|---------------------------------|
    2----3-----------------------------------|-----1---------------แตะ--12--|
    3--------3-------------------------------|----------------------------------|
    4-----------------------------------------|---------------------------------|
    5----1-----------------------------------|-----3---------------------------|
    6-----------------------------------------|--------------------------------- |



    ไม่เหมือนไม่ต้องว่าคับ

    แกะเอง ไม่ได้ก็อปจากเวปอื่นมาโพส

    ขอบคุณคับ


  • KIMY
    Guest
  • 23 ต.ค.2550,14:49น. 125.26.145.241
    เพลงบ้าไรอ่ะ โคตรซึ้ง โคตรเพราะอ่ะ แมร่ง ชอบๆๆๆๆๆ
  • ตาล
    Guest
  • 26 ต.ค.2550,14:49น. 203.113.45.198
    มีโนต้เป่าขลุ่ยไม๊คะ?
    อยากได้มากๆอ้ะ
    พอดีเร่นเปนอย่างเดียว อิอิ
    ไคมีกรุณาโพสหน่อยนะคะ
    ขอบคุนค๊า ((ขอคอร์ดกีต้าร์))
  • อยากได้ๆ
    Guest
  • 27 ต.ค.2550,11:00น. 125.24.102.98
    อยากได้ แท็ป มากๆครับ ((ขอคอร์ดกีต้าร์))
  • เกมส์นะ
    Guest
  • 27 ต.ค.2550,21:09น. 124.121.173.138
    ฉันม่ะได้หวังทำดีให้เทอมารักกัน...ห่วงเทอกะแค่นั้น...!!!!!.... โดนเลย...โดนยืมตังเลย แฮะๆๆ
  • พะยอม
    Guest
  • 13 ก.พ.2551,09:56น. 58.136.195.91
    ขอบคุณครับ
  • จัายานแดง
    Guest
  • 2 มี.ค.2551,11:41น. 58.147.37.82
    ก็ไม่ได้หวังมาแทนที่คนที่ทิ้ง
  • แอบรักเพื่อน**
    Guest
  • 2 มี.ค.2551,11:46น. 58.147.37.82
    เราเป็นได้แค่เพื่อนเธอนี่
    ทำได้แค่ห่วงเธอ
    จำไว้นะรักไม่มีใครแทนใครได้ อ่ะจิงๆๆๆๆ
  • 3 มี.ค.2551,00:39น. 192.168.10.108 222.123.224.231


    Intro นะจ๊ะ

    --------------------1-----------------0----------------------0--1h0-----------|
    ---------------------------------------------1---------------------------1-------|
    ---2h3--2---------------2---------------------0---------------------------2--|
    --------------3----------------3-----------------------2------------------------|
    ---------------------------------------0-----------------------------------------|
    ---1-----------------------------------------------------------------------------|

    _*_เชี่ย

    --------------------------1-------------------------------------3------1----0-|
    -------------------------------------------3-----1-------------1---------------|
    ----2h3---2-----------------2------------------------0------0---------------|
    -----------------3-----------------3---------------------------2---------------|
    ----1-------------------------------------0--------------------0---------------|
    ---------------------------------------------------------------------------------|

    _*_ควาย

    ---------------------------------------------------------------------|
    -----------------1---------------------------3-----5-----3--------|
    ----2h3---------------3---------5----------------------------5---|
    ------------3---------------3---------3----------------------------|
    --------------------------------5---------3-------------------------|
    ----3-----------------------------5----------5---------------------|

    _*_ไม่ให้ตื้อ

    -----------------------0--------1--------------1h3---1---0--------|
    ----3-------------------------------------------------------------1---|
    ----------2-----------------2---------2------------------------------|
    ----------------3---------------------------3-------------------------|
    ----1-------------------------------------------3---------------------|
    -----------------------------------------------------------------------|

    _*_แต่แสดงให้เห็นว่าเรารักเค้า

    -------------------|
    ----1(A.H.)-----|
    -------------------|
    -------------------|
    -------------------|
    -------------------|

    _*_มันจะเป็นไปได้ไงยังวะ ตอบที
  • สถุลแมน
    Guest
  • 3 มี.ค.2551,00:40น. 192.168.10.108 222.123.224.231
    เย้ย ข้างบนคอร์ดกีตาร์นะครับโทดที

ขอเชิญร่วมแสดงความคิดเห็นครับ

คลิกที่รูป เพื่อแทรกรูปลงในข้อความ
  • Member :
    username
    password
  • Not a member :
    name
    email