Loading

เพลง Clock

ซูเปอร์ซับ (Supersub)

อัพโหลดคลิปเพลงนี้ที่คุณ ร้อง/เล่น ด้วยตัวคุณเอง ได้แล้ววันนี้
ระหว่างการทดสอบระบบหากพบข้อผิดพลาด กรุณาแจ้งที่นี่
เนื้อร้อง	กัลย์ วงศ์วิทวัส 
ทำนอง กัลย์ วงศ์วิทวัส
เรียบเรียง SUPERSUB

V1 :
ค่ำคืนได้แต่มองนาฬิกา ให้เวลาร่างกายได้ทำตามหัวใจหลับฝัน
ทุกคืนฉันก็มองมันทุกวัน เข็มยาวเดินไป
เรื่องราวที่ได้ผ่านมาทั้งวัน ฉันจะลืมแล้วลองหลับตานอนนับดาวในฝัน
ฝันดีอยากจะฝันดูสักที สักคืน

PRE :
เกือบตีสอง ยังไม่หลับ
จนตีสาม ตาสว่าง
ในคืนนี้ ฉันคงไม่พบเธอสักที

HOOK :
อยากเจอเธอในฝัน ทิ้งความจริงที่ฉันไม่มีเธอ
อยากปล่อยใจให้ฝันละเมอ เจอะเธอทุกวัน
ใกล้เวลาจะเช้าขึ้นทุกที ฉันคงหมดเวลาเจอเธอคืนนี้
หมดสิทธิ์ฝันดี พรุ่งนี้แล้วกัน

PRE :
เกือบตีสอง ยังไม่หลับ
จนตีสาม ตาสว่าง
ในคืนนี้ ฉันคงไม่ได้พบเธอสักที

HOOK :
อยากเจอเธอในฝัน ทิ้งความจริงที่ฉันไม่มีเธอ
อยากปล่อยใจให้ฝันละเมอ เจอะเธอทุกวัน
ใกล้เวลาจะเช้าขึ้นทุกที ฉันคงหมดเวลาเจอเธอคนนี้
อยากจะฝัน ทำไมยังทำไม่ได้ซักที

ดาวน์โหลด Full Song
กด *424243110216584
กด *424243110216584
ดาวน์โหลด Truetone
กด *424218110216584
กด *424218110216584
กด *424218110216584
ดาวน์โหลด Poly
กด *424214110216584
กด *424214110216584
กด *424214110216584
ดาวน์โหลด Mono
กด *424211110216584
กด *424211110216584
กด *424211110216584
* อัตราค่าบริการดาวน์โหลด Fullsong, Truetone, Poly, Mono : 35 บาท/เพลง
ส่งเพลงนี้ให้เพื่อน
วันที่โพสต์ : 5 พ.ค.2551,20:06น. 58.9.190.232
จำนวนผู้ชม : 56608 คน / แสดงความคิดเห็น : 33 ครั้ง
โพสต์โดย


จาก: AByssKaiser
เข้าร่วม: 9 ปีก่อน
เพลง: 0
โพสต์: 7
เพลงแนะนำ
เพลงฮิต
ผู้สนับสนุน
เลือกแสดงเฉพาะ :

  • marn_talay
    Guest
  • 9 มิ.ย.2551,01:06น. 125.24.145.52
    Clock (Supersub)
    Intro ครับ
    E--3------4h3----------------------------------------6------------------
    B--4------------4--------------------------6-----------------------------
    G--5---------------5---------------7---------7--------------------------
    D--6--6--------------6---------8------8--------8-----------------------
    A----------------------------/6-------------------------------------------
    E--------------------------------------------------------------------------

    E--3------4h3--3-------------------------------------6-----------------
    B--4----------------4-----------------------6----------------------------
    G--5------------------5---------------7---------7-----------------------
    D--6--6----------------6---------8------8--------8---------------------
    A----------------------------/6-------------------------------------------
    E--------------------------------------------------------------------------(พยายามเล่นเสียงค้างไว้หๆน่อย)

    E------------------------------------------------------------------------------------------------------------------
    B-------------------------------------- 11---11--11--11--11---11-------11----11--------11---11---11~
    G-------------8---10---10/12~---12---12-- 12--12--10---10h12--10----10h12---10---10---10~
    D------/10-------------------------------------------------------------------------------------------------------
    A------------------------------------------------------------------------------------------------------------------
    E------------------------------------------------------------------------------------------------------------------

    E------------------------------------------------------------------------------------------------------------------
    B-------------------------------------- 11---11--11--11--11---11-------11----11--------11--------------
    G-------------8---10---10/12~---12---12---12--12-10---10h12--10----10h12---10---8--10----
    D------/10----------------------------------------------------------------------------------------------------10~
    A------------------------------------------------------------------------------------------------------------------
    E------------------------------------------------------------------------------------------------------------------
    ลองดูครับ..
  • MaX
    Guest
  • 20 มิ.ย.2551,22:29น. 58.9.10.186
    ฟังไปฟังมา

    เพลงนี้ก้เพราะนะคับบบบบบบบบบบบบ
1

ขอเชิญร่วมแสดงความคิดเห็นครับ

คลิกที่รูป เพื่อแทรกรูปลงในข้อความ
  • Member :
    username
    password
  • Not a member :
    name
    email