MusicATM : ฟังเพลง Hey ซิลลี่ ฟูลส์ (Silly Fools) เนื้อเพลง ฟังเพลง คอร์ดเพลง Hey ฟังเพลงHey คอร์ดกีต้าร์ คอร์ดเพลง คอร์ด คอร์ดกีตาร์

คอร์ดเพลง เนื้อเพลง ฟังเพลง

เพลง Hey

ซิลลี่ ฟูลส์ (Silly Fools)

Print

Hey.. SillyFools

Intro: E

E
Hey..
A E
** แอบได้ยินได้ฟังว่าเธอเจ็บช้ำใจ
A E
พอได้รู้ฉันเลยต้องการจะถามไถ่
A C#m B
พอเธอรู้ว่ารักที่เขาให้เธอนั้นเปลี่ยนไป เธอเลยเศร้าใจ
E
โอ้.. Hey..

A E
แอบได้ยินว่าเขาทำให้เธอเสียใจ
A C#m B
พอฉันรู้ฉันเลยต้องการบอกสิ่งที่อยู่ข้างใน ในใจฉัน
E
โอ้.. Hey..

B C#m
* จับมือฉันไว้ อย่ามองไปข้างหลัง
A E
จะบอกยังไงให้รู้ว่ามีฉัน
B C#m
จับมือฉันไว้ อย่ามองไปทางนั้น
A
จะบอกยังไงให้รู้

G D
จะบอกยังไง จะทำยังไงให้เธอเห็น
Em D
ว่าฉันเป็นคนที่มีใจที่รอคอยอยู่ไม่ไกล
G D
จะบอกยังไงจะพูดยังไงให้เธอรู้
Em C
เธออยู่ในลมหายใจ ทุกลมหายใจของฉัน

Instru: E A C#m B (2times)

C#m B C#m
จะเจ็บช้ำไปก็เท่านั้น อยากให้มองมาที่ทางฉัน
B E
ให้เธอลืมเรื่องเหล่านั้นมาเริ่มต้นใหม่วันของเรา

(ซ้ำ *)

E
โอ้.. Hey..
B C#m
จับมือฉันไว้ อย่ามองไปข้างหลัง
A E
จะบอกยังไงให้รู้ว่ามีฉัน
B C#m A
จับมือฉันไว้ อย่ามองไปทางนั้น

(ซ้ำ **)

อยากได้ Tab soloครับ
http://www.musicatm.com/thai/คอร์ดเพลง-Hey-3534.html
ส่งเพลงนี้ให้เพื่อน
วันที่โพสต์ : 23 ม.ค.2548,15:26น.
จำนวนผู้ชม : 87531 คน / แสดงความคิดเห็น : 33 ครั้ง
โพสต์โดย


จาก: เป้
Guest
เพลงฮิต
เพลงใหม่
เพลงทั้งหมด
เพลงแนะนำ
Fanpage
ข่าวสารจากเว็บครับ
เลือกแสดงเฉพาะ :

  • Krit
    Guest
  • 25 ม.ค.2548,21:58น.
    เมิงจะเอาเพลงนี้ไปเล่นโชว์ใครนักหนาว่ะ

    เห็นขอ แทป จังเลย กรูไม่ให้ แทป เมิงกรูก็ไม่ควรด่าแต่กรูรำคาญ

  • หมี่หยกทีม
    Guest
  • 7 มี.ค.2548,09:25น.
    กูก็ไม่มีโว๊ยกูกำลังหาอยู่เหมือนกันใครมีเอามาลงทีกูอยากด้าย..........
  • เป้
    Guest
  • 18 มี.ค.2548,11:55น.
    ไม่เป็นก็อย่าปากดี
  • เป้
    Guest
  • 7 มิ.ย.2548,17:46น.
    ช่วยหน่อยดิ
    ((ขอคอร์ดกีต้าร์))
  • 14 ต.ค.2548,19:49น.
    ขอแทปหน่อยดิ
  • unknow
    Guest
  • 16 ก.พ.2549,12:50น.
    Tab ที
  • unknow
    Guest
  • 16 ก.พ.2549,12:50น.
    Tab ที
  • อิอิ
    Guest
  • 3 เม.ย.2549,19:12น.
    ดูในคอนเสริต์เอาเลยเห็นเต็มๆ
  • mai
    Guest
  • 9 พ.ค.2549,14:54น.
    เอา ตอน solo มาลงหน่อยจิ ครับ ขอร้อง
    ((ขอคอร์ดกีต้าร์))
  • +_+'
    Guest
  • 8 ก.ค.2549,21:45น.
    อย่าทะเลาะกัน เดี๋ยวจะเอามาลงให้ เพื่อผมมันแกะได้แล้วนะ เดี๋ยวไปขอมันมาให้ 
  • +_+'
    Guest
  • 8 ก.ค.2549,21:47น.
    แต่ผมว่าเล่น Eb เหมือนกว่านะ
  • +_+'
    Guest
  • 13 ก.ค.2549,21:34น.
    คอร์ดเพลงนี้ยังไม่มีคะแนน
    (อย่าลืม ช่วยกันกดให้คะแนนคอร์ดเพลงที่คุณชื่นชอบ หรือตัดคะแนนคอร์ดที่คุณไม่ชอบได้เลย)
    ไปขอ Tab เพื่อนมาแต่ไม่เจอก็เลยแกะเองไม่รู้ถูกหรือเปล่า

    เอาไปแค่นี้ก่อนก็แล้วกันที่เหลือไปแกะกันเอาเองนะ

    เพราะผมก็แกะไม่ได้แล้วมีปัญญาแค่นี้แหละ เล่นไม่เก่งนะ

    ผมเล่น Key Eb ใครเล่น E ก็เลื่อนเอาแล้วกัน

    Key Eb

    5|-6/8---------------------------876-------------------6-8----6-8---6----
    4|------6h8--------------6/8\6-------8/10/12\10------5------5------
    3|-----------787-7-7/9-------------------------------------------------
    2|------------------------------------------------------------------------


    5|--6-8-------------------------------------------------
    4|-------6-8--------------------------------------------
    3|------------10^10-10^8--8---10-8-10-------------
    2|---------------------------------9------------11/13----


    5|-------------------------------------------------------------------
    4|-------------------------------------------------------------------
    3|101213-10/12--10-12------19^-20-19^--17-19^
    2|-------------------------------10-------------------------------------
  • lnwICE
    Guest
  • 16 ก.ค.2549,13:29น.
    ไม่น่าแยกวงเลยเนอะ T-T
  • +_+'
    Guest
  • 20 ก.ค.2549,18:45น.
    คอร์ดเพลงนี้ยังไม่มีคะแนน
    (อย่าลืม ช่วยกันกดให้คะแนนคอร์ดเพลงที่คุณชื่นชอบ หรือตัดคะแนนคอร์ดที่คุณไม่ชอบได้เลย)
    โทษทีลงให้ไม่ครบ 

    มาลงให้ต่อแล้วนะ (ท่อนสุดท้ายผมมั่วเอานะ)

    Key Eb

    5|-6/8---------------------------876-------------------6-8----6-8---6----
    4|------6h8--------------6/8\6-------8/10/12\10------5------5------
    3|-----------787-7-7/9-------------------------------------------------
    2|------------------------------------------------------------------------


    5|--6-8-------------------------------------------------
    4|-------6-8--------------------------------------------
    3|------------10^10-10^8--8---10-8-10-------------
    2|---------------------------------9------------11/13----


    5|-------------------------------------------------------------------
    4|-------------------------------------------------------------------
    3|101213-10/12--10-12------19^-20-19^--17-19^
    2|-------------------------------10-------------------------------------


    5|
    4|
    3|-16-18---15-16-18----16-16----16-----16----16
    2|--------17-----------17--------18-----17-----18----19^--17-17
  • zero k2
    Guest
  • 19 ธ.ค.2549,14:27น.
    ชอบพี่โตจ่ะ
    พี่โตเสียงสูงม๊ากมาก
  • งง
    Guest
  • 26 ธ.ค.2549,13:06น.
    งงอยู่คนเดียว
  • รุต
    Guest
  • 19 ม.ค.2550,15:19น.
    ผมชอบพี่ต้น มากเลยคับ พี่ต้นคือแรงบรรดาลใจของผมคับ เมื่อไรวีดีโอชุด 2ของพี่ต้นจะออกคับ ผมรออยู่คับ พี่
  • ปิง
    Guest
  • 2 ก.พ.2550,17:21น.
    เฮ้ย นายข้างบน อ่ะ เหมือนเราเลย เราก็ลองชุดเหมือนกัน 555+
    สู้ไม่ได้เราเล่นได้แล้วนะ มันโครต
  • ...
    Guest
  • 19 ก.พ.2550,19:22น.
    เมิงบ่นไรกานนนนนนนนนนนนนน
  • mk
    Guest
  • 26 เม.ย.2550,11:24น.
    1--------------------------------------------------------------------------------------------------------------2--------------------------------------------------------------------------------------------------------------3--------------------------------------------------------------------------------------------------------------4--------------------------------------------------------------------------------------------------------------5--------------------------------------------------------------------------------------------------------------6--------------------------------------------------------------------------------------------------------------



    ลืมเด๋วไปแกะก่อน
  • ทา
    Guest
  • 26 เม.ย.2550,11:26น.
    1-------------------------------------------------------------------------------------
    2------------------------------------------------------------------------------------
    3------------------------------------------------------------------------------------
    4-----------------------------------------------------------------------------------
    5----------------------------------------------------------------------------------
    6-----------------------------------------------------------------------------------

    ลืมเด๋วไปแกะก่อน

    (แก้ไข)

  • Yamaha
    Guest
  • 8 ก.ค.2550,11:18น.
    มีการลืมด้วย....
  • ชาร์ป กาญจนบุรี
    Guest
  • 11 ม.ค.2551,23:06น.
    ต้น Sillyfools โว๋ยๆๆๆๆ
  • 22 ก.ย.2557,01:35น.
    คอร์ดเพลงนี้ยังไม่มีคะแนน
    (อย่าลืม ช่วยกันกดให้คะแนนคอร์ดเพลงที่คุณชื่นชอบ หรือตัดคะแนนคอร์ดที่คุณไม่ชอบได้เลย)
    Tune To Eb
    Intro : /E / A/
          E             A                     E           
    *  Hey  แอบได้ยินได้ฟังว่าเธอเจ็บช้ำใจ 
            A                     E
    พอได้รู้ฉันเลยต้องการจะถามไถ่
            A                          C#m                   B
    พอเธอรู้ว่ารักที่เขาให้เธอนั้นเปลี่ยนไป  เธอเลยเศร้าใจ
     E               A                      E   
    Hey  แอบได้ยินว่าเขาทำให้เธอเสียใจ 
            A                              C#m           B
    พอฉันรู้ ฉันเลยต้องการบอกสิ่งที่อยู่ข้างใน ในใจฉัน 
    
        E                  B                     C#m    A                       E
    **  Hey จับมือฉันไว้ อย่ามองไปข้างหลัง  จะบอกอย่างไรให้รู้ว่ามีฉัน
     
                       B                    C#m   A              B
    *** จับมือฉันไว้ อย่ามองไปทางนั้น  จะบอกอย่างไรให้รู้
        G                                       D   
    จะบอกอย่างไร จะทำอย่างไรให้เธอเห็น 
      Em                    D
    ว่าฉันเป็นคนที่มีใจ ที่รอคอยอยู่ไม่ไกล
         G                                     D
    จะบอกอย่างไร จะพูดอย่างไรให้เธอรู้  
        Em                     C
    เธออยู่ในลมหายใจ ทุกลมหายใจของฉัน
    
    Instru : /E/A/C#m/B/(2 times)
    
    C#m                         A                                             C#m
           จะเจ็บจำไปก็เท่านั้น (ก็เท่านั้น)  อยากให้มองมาที่ทางฉัน
                                          A          B
    อยากให้ลืมเรื่องเหล่านั้น  มาเริ่มต้นใหม่วันของเรา
    
    ซ้ำ ( ** , *** ) 
    
     E                   B                     C#m     A                     E
    Hey  จับมือฉันไว้ อย่ามองไปข้างหลัง   จะบอกอย่างไรให้รู้ว่ามีฉัน
                           B                  C#m  A
    Hey     จับมือฉันไว้ อย่ามองไปทางนั้น
    
    ซ้ำ ( * )
1

ขอเชิญร่วมแสดงความคิดเห็นครับ

คลิกที่รูป เพื่อแทรกรูปลงในข้อความ
  • Member :
    username
    password
  • Not a member :
    name
    email
Loading