Loading

เพลง I?m Sorry

เอบีนอร์มอล (เอบี นอร์มอล (AB Normal)

อัพโหลดคลิปเพลงนี้ที่คุณ ร้อง/เล่น ด้วยตัวคุณเอง ได้แล้ววันนี้
ระหว่างการทดสอบระบบหากพบข้อผิดพลาด กรุณาแจ้งที่นี่
บอกตรงๆ ว่าฉันก็เสียใจ
ที่ทำให้เราต้องทะเลาะกัน
ไม่ว่าด้วยเหตุผลนั้นคืออะไร

* คนผิดคือฉันไม่ใช่เธอ
อย่าร้อง อย่าร้องไห้เลยเธอ
หันหน้ามาคุยกันก่อนดีไหม

** ต้องทำยังไง เธอจึงจะยอมหายโกรธ
ต้องทำยังไง เธอจึงจะยกโทษให้ฉัน
อย่าทรมานด้วยการไม่มองหน้ากัน
นึกว่าสงสาร...คนรักกัน ฉันขอโทษ...

ไม่ตั้งใจจะทำร้ายเธอ แต่ก็เผลอทำเธอร้องไห้
ฉันไม่ได้ความจริงๆ ที่รัก...

( * / ** )

( ** / ** )

ฉันขอโทษ...
ส่งเพลงนี้ให้เพื่อน
วันที่โพสต์ : 1 เม.ย.2549,19:12น. 192.168.1.213
จำนวนผู้ชม : 200374 คน / แสดงความคิดเห็น : 125 ครั้ง
โพสต์โดย


จาก: Silly Fools FC.
เข้าร่วม: 8 ปีก่อน
เพลง: 0
โพสต์: 60
เพลงแนะนำ
เพลงฮิต
เลือกแสดงเฉพาะ :

  • grl
    Guest
  • 21 มิ.ย.2551,10:55น. 117.47.2.177
    รักมากๆๆๆๆๆๆๆๆค่ะ*-*
  • dream`
    Guest
  • 1 เม.ย.2549,20:16น.
    อยากได้ tap อะๆๆ ใครก้ได้ แกะให้ทีนะๆๆ 
  • ^_^ คนของเธอ
    Guest
  • 1 เม.ย.2549,22:48น.
    ^_^ เราแกะแล้วน่ะแล้วจาให้น่ะขอเวลาหน่อย พิมพ์ TAb ในนี้มะค่อยเป็น 
  • ^_^ คนของเธอ
    Guest
  • 1 เม.ย.2549,23:01น.
    เอา INTRO ไปก่อนน่ะ แล้วจารวมให้

    INTRO::::::::::::::::::::::::::::::::::::::::::::::

    1------------------------------------------------------------------------------------------------------
    2------------3------3---------3-------------------3-----------------------3-----------------------2
    3---------0----------------------------------0-----0------------------0---0------------0---------0
    4------4---------------------------------4---------4---------------2------2---------2------------2
    5---5---------------------4---------2--------------2-----------------------------0----------------0
    6------------------------------------------------------------0----------------------------------------
    ^_^
    ::::::::::::::::::::::::::::::::::::::::::::::::::::::::::::::::;
    อันนี้เป็นกีต้าร์อัรแรกน่ะอีกอันยังม่ายได้แกะเลย เพราะเล่นคนเดียว(อิอิ)
    ส่วน SOLO เดี๋ยวจัดไปน่ะ
    แล้วถ้ามันผิดเพี้ยนตรงใหนบอกกานด้วยน่ะจาได้เล่นให้เนียนนนนนนนนน


    _
  • ^_^ คนของเธอ
    Guest
  • 1 เม.ย.2549,23:26น.
    อ่ะจัดคร์อดไปล่ะน่ะถ้าเพี้ยนก็ติได้

    INTRO::::::Dsus2 / Bm / Em / A7 ///////////////////////

    Dsus2 Bm
    บอกตรงๆ ว่าฉันก็เสียใจ

    Dsus2 Bm
    ที่ทำให้เราต้องทะเลาะกัน

    Em A7
    ไม่ว่าด้วยเหตุผลนั้นคืออะไร

    F#m Bm
    * คนผิดคือฉันไม่ใช่เธอ

    F#m Bm
    อย่าร้อง อย่าร้องไห้เลยเธอ

    Em A7 / A7
    หันหน้ามาคุยกันก่อนดีไหม

    Dsus2 Bm
    ** ต้องทำยังไง เธอจึงจะยอมหายโกรธ

    Em A7
    ต้องทำยังไง เธอจึงจะยกโทษให้ฉัน

    F#m Bm
    อย่าทรมานด้วยการไม่มองหน้ากัน

    Em A7 Dsus2 / G / Dsus2 / A7
    นึกว่าสงสาร...คนรักกัน ฉันขอโทษ...

    Dsus2 Bm
    ไม่ตั้งใจจะทำร้ายเธอ

    Dsus2 Bm
    แต่ก็เผลอทำเธอร้องไห้

    Em A7
    ฉันไม่ได้ความจริงๆ ที่รัก...

    ( * / ** )

    SoLo::::::Dsus2 / Bm / Em / A7 ( 2 รอบ )

    ( ** / ** )

    Dsus2 / A7 ( อันนี้ดีด 3 ครั้ง )
    ฉันขอโทษ...

    OUTRO:::::::::Dsus2 / Bm / Em / A7 / Dsus 2

    ส่วน Tab ท่อนกลาง ก่าท่อน SoLo จาจัดไปน่ะพรุ่งนี้ก่องนอนและ
    ถ้า Chord มันผิดตรงใหนก็ขออภัยด้วยครับ
  • ^_^ คนของเธอ
    Guest
  • 1 เม.ย.2549,23:30น.
    อยากร้องเสียง HardCore เป็น ครายร้องเป็นตอบด่วน

    มีรายก็แล้กเปลี่ยนความคิดเห็นกานได้น่ะ เราเล่นเป็นทุกอย่างอ่าว่ามาเลย

    อ่นี่เมลเราน่ะแอดมาหาน่ะ

    Nattavashotmail.com
  • ผมคับ
    Guest
  • 2 เม.ย.2549,16:23น.
    สุดยอดดดดดดดดด ขอ Tab solo คร๊าบบบ    
  • ^_^ คนของเธอ
    Guest
  • 2 เม.ย.2549,21:36น.
    อ้าจัดไปแล้วน่ะ TAB Solo

    1------------------------------------------------------------------------------------------------------
    2------------3------3---------3-------------------3-----------------------3-----------------------2
    3---------0----------------------------------0-----0------------------0---0------------0---------0
    4------4---------------------------------4---------4---------------2------2---------2------------2
    5---5---------------------4---------2--------------2-----------------------------0----------------0
    6------------------------------------------------------------0----------------------------------------


    1----------------------------------------------------------------------------------------------------------
    2----------------10---------------------------------10------------------------------------10---------
    3-------------------------------------------------------------------------------------------------------
    4---11---12--------------------11------12------------------------11---------12----------------
    5-----------------------------------------------------------------------------------------------------
    6----------------------------------------------------------------------------------------------------

    1-------------------------------------------------
    2---10------S-----12------10-----8------10
    3----9-------S-----11-------9------7-------9
    4-------------------------------------------------
    5-------------------------------------------------
    6-------------------------------------------------

    ((((((_ หมายเหตุ_ ---S-- _ คือ รูดน่ะ)))))))

    หาก Tab solo ของผมผิดพลาดปราการไดก็ติกานได้น่ะ

    เราไม่ใช่พระเจ้าที่จาทำไรไห้เหมือนได้ทุกอย่าง

    ส่วน Tab ท่อนกลาง จาจัดไปน่ะ
  • ^_^ คนของเธอ
    Guest
  • 2 เม.ย.2549,21:49น.
    อ่ะนี่ Tab ท่อนกลางน้า

    1----------------------------5----------------10--------------------------------------------
    2---5-----------5---------------8-----------------10--------5------------5---------------
    3------7------------7----------------7----------------------------7------------7-----------
    4---------7-------------7--------------------------------12-----------7------------7------
    5---------------------------------------------------------------------------------------------
    6----------------------------------------------------------------------------------------------

    1--------------------------------------------------
    2--------------------------------------------------
    3------------------------------7-------------------
    4---7------7----S----9-----------9----S----11
    5---------------------------------------------------
    6---------------------------------------------------

    ((((( ------S-------- คือรูดน่ะ )))))))))))

    ครบซะทีที่เหลือก็ตานายเล่นแล้วถูกผิดก็บอกกานน่ะ
  • ^_^ คนของเธอ
    Guest
  • 2 เม.ย.2549,21:52น.
    อยากได้เพลงของ Dezember ครายก็ได้จัดมาทีน่ะขอร้องอ่า  
  • วิน
    Guest
  • 3 เม.ย.2549,09:19น.
    แล้วท่อนoutroหละคับ
  • ^_^ คนของเธอ
    Guest
  • 3 เม.ย.2549,10:02น.
    ท่อน Outro ก็เหมือนท่อน Intro นั่นแหละครับแล้วก็ตอนจบก็ลง Dsus2 ครั้งเดียวงับ 
  • มือกีต้า
    Guest
  • 4 เม.ย.2549,10:48น.
    dsus2 จับไงอ่ะคับ
  • ^_^ คนของเธอ
    Guest
  • 4 เม.ย.2549,11:03น.
    ก็จับเหมือน D อ่ะแต่ว่ายกนิ้วกลางออกนั่นเองลองเล่นดูน่ะ 
  • นน
    Guest
  • 4 เม.ย.2549,11:38น.
    ผมชอบเพลงนี้มากๆมันตรงกะความจริงของผมเร้ย
  • ผมคับ
    Guest
  • 4 เม.ย.2549,16:23น.
    แล้วกีต้าร์อีกตัวเล่นยังไงคับ    
    พึ่งบอกมาตัวเดียวเอง...
  • ^_^ คนของเธอ
    Guest
  • 5 เม.ย.2549,08:39น.
    อีกตัวยังไม่ได้แกะอ่าโทษทีน่ะพอดีไป ออดีชั่นมา อ่าม่ายค่อยมีเวลาแกะโทษทีน่ะถ้าแกะแล้วจาเอาไปไห้น้า
  • pat nos
    Guest
  • 5 เม.ย.2549,09:15น.
    INTRO::::::Dsus2 / Bm / Em / A7 ///////////////////////

    Dsus2 Bm
    บอกตรงๆ ว่าฉันก็เสียใจ

    Dsus2 Bm
    ที่ทำให้เราต้องทะเลาะกัน

    Em A7
    ไม่ว่าด้วยเหตุผลนั้นคืออะไร

    F#m Bm
    * คนผิดคือฉันไม่ใช่เธอ

    F#m Bm
    อย่าร้อง อย่าร้องไห้เลยเธอ

    Em A7 / A7
    หันหน้ามาคุยกันก่อนดีไหม

    Dsus2 Bm
    ** ต้องทำยังไง เธอจึงจะยอมหายโกรธ

    Em A7
    ต้องทำยังไง เธอจึงจะยกโทษให้ฉัน

    F#m Bm
    อย่าทรมานด้วยการไม่มองหน้ากัน

    Em A7 Dsus2 / G / Dsus2 / A7
    นึกว่าสงสาร...คนรักกัน ฉันขอโทษ...

    Dsus2 Bm
    ไม่ตั้งใจจะทำร้ายเธอ

    Dsus2 Bm
    แต่ก็เผลอทำเธอร้องไห้

    Em A7
    ฉันไม่ได้ความจริงๆ ที่รัก...

    ( * / ** )

    SoLo::::::Dsus2 / Bm / Em / A7 ( 2 รอบ )

    ( ** / ** )

    Dsus2 / A7 ( อันนี้ดีด 3 ครั้ง )
    ฉันขอโทษ...

    OUTRO:::::::::Dsus2 / Bm / Em / A7 / Dsus 2

  • pat nos
    Guest
  • 5 เม.ย.2549,09:15น.
    INTRO::::::Dsus2 / Bm / Em / A7 ///////////////////////

    Dsus2 Bm
    บอกตรงๆ ว่าฉันก็เสียใจ

    Dsus2 Bm
    ที่ทำให้เราต้องทะเลาะกัน

    Em A7
    ไม่ว่าด้วยเหตุผลนั้นคืออะไร

    F#m Bm
    * คนผิดคือฉันไม่ใช่เธอ

    F#m Bm
    อย่าร้อง อย่าร้องไห้เลยเธอ

    Em A7 / A7
    หันหน้ามาคุยกันก่อนดีไหม

    Dsus2 Bm
    ** ต้องทำยังไง เธอจึงจะยอมหายโกรธ

    Em A7
    ต้องทำยังไง เธอจึงจะยกโทษให้ฉัน

    F#m Bm
    อย่าทรมานด้วยการไม่มองหน้ากัน

    Em A7 Dsus2 / G / Dsus2 / A7
    นึกว่าสงสาร...คนรักกัน ฉันขอโทษ...

    Dsus2 Bm
    ไม่ตั้งใจจะทำร้ายเธอ

    Dsus2 Bm
    แต่ก็เผลอทำเธอร้องไห้

    Em A7
    ฉันไม่ได้ความจริงๆ ที่รัก...

    ( * / ** )

    SoLo::::::Dsus2 / Bm / Em / A7 ( 2 รอบ )

    ( ** / ** )

    Dsus2 / A7 ( อันนี้ดีด 3 ครั้ง )
    ฉันขอโทษ...

    OUTRO:::::::::Dsus2 / Bm / Em / A7 / Dsus 2

  • otto
    Guest
  • 5 เม.ย.2549,11:51น.
    ขอบคุณค้าบ 
  • Play station
    Guest
  • 5 เม.ย.2549,12:51น.
    ผมลองแก้ใหม่คับ ลองเล่นดูคับ ไม่รู้เหมือนป่าว
    Tab Intro
    1---------------------------------------------------2------------------------0--------------------------0----
    2------------3------3---------3-------------------3-----3-----------------0---0---------------------3----
    3---------0----------------------------------4-----4--------4----------0--0-----------0---------2--2---
    4------4---------------------------------4---------------------------2--------------2----------2-----------
    5---5---------------------4---------2-------------------------------------------------------0--------------
    6------------------------------------------------------------------0-----------------------------------------


  • ...
    Guest
  • 5 เม.ย.2549,18:36น.
    Tab Intro
    1---------------------------------------------------2------------------------0--------------------------0----
    2------------3------3---------3-------------------3-----3-----------------0---0---------------------3----
    3---------0----------------------------------4-----4--------4----------0--0-----------0---------2--2---
    4------4---------------------------------4---------------------------2--------------2----------2-----------
    5---5---------------------4---------2-------------------------------------------------------0--------------
    6------------------------------------------------------------------0-----------------------------------------

    แปลว่าอะไรช่วยบอกหน่อย
  • กุ๊ก จ้า
    Guest
  • 5 เม.ย.2549,20:25น.
    หาฟังได้ที่ไหนค่ะ
  • ปั่น
    Guest
  • 6 เม.ย.2549,01:04น.
    ตอนเริ่ม  อะไร ไม่ใช่ d นะ   จับ คอร์ด c แต่ว่าเรื่อยไป เฟรช 3
  • เดา
    Guest
  • 6 เม.ย.2549,15:04น.
    ดูทีวี(แมลงมัน)ละซิ 
  • เดียร์
    Guest
  • 6 เม.ย.2549,18:47น.
    อยากได้ที่โหลดเพลงอ่ะ บอกมาหน่อยดิ
  • K@P๐o|<Lo๐>|
    Guest
  • 7 เม.ย.2549,09:38น.
    จับ Tab Intro ยากจัง สอนหน่อยจิ
  • NuT
    Guest
  • 7 เม.ย.2549,21:37น.
    ผมว่า solo ท่อนกลางอ่ะ จับ Dsus2 กับ G แล้วเล่นไล่สาย 1/2-3/1/2 เสียงเหมือนกันเลยครับ

    ผมว่า Intro มันแปลกๆน่ะครับ ถ้าใครเล่นเนียน แอดมา หน่อยน่ะครับ nutonlinehotmail.com
  • ...
    Guest
  • 8 เม.ย.2549,13:14น.
    introไม่ตรงนะเราว่าเราแกะเป็นอีกแบบนึงอ่ะ
  • NuT
    Guest
  • 8 เม.ย.2549,23:12น.
    ใครเเกะได้เนียนๆ ช่วยโพสหน่อยจิครับ

ขอเชิญร่วมแสดงความคิดเห็นครับ

คลิกที่รูป เพื่อแทรกรูปลงในข้อความ
  • Member :
    username
    password
  • Not a member :
    name
    email