คอร์ดเพลง เนื้อเพลง ฟังเพลง

เพลง Love

พาราดอกซ์ (Paradox)

Print

Love
คำร้อง/ทำนอง อิทธิพงศ์ กฤดากร ณ อยุธยา
PARADOX : ร้อง
เล่นจังหวะ Mappito

C Em
* โอ้ความรัก โปรดมองฉัน
Dm G C
บางเวลา เราพบกันเมื่อวันช้ำใจ
Em Dm G
เธอเข้ามา โอบกอดฉันไว้แผ่วเบา
C Em
โอ้ความรัก ที่อ่อนหวาน
Dm G C
โปรยความงาม พาหัวใจฉันลอยล่องไป
Em Dm G
ดูซิดู เธออยู่ไหน เจ้าความรักฉันอยากพบเธอ

Instru: C C C C G

C Em Dm G C
มองจันทราเวลาฟ้าดำ บอกทะเลฉันคงเข้าใจ
Em Dm G C
มีความงามขึ้นมาครั้งใด เป็นพบเธอ อยู่ข้างใน
Em Dm G C
เธอทำให้โลกสดใส และก็ทำให้ฉันเศร้าใจ
Em Dm G
เปลี่ยนแปลงชีวิตฉันได้ เป็นเพราะเธอ

(ซ้ำ *)

Instru: C C C C G

C Em Dm Ab
ลาลันลา ล้าลา ลาลันลา ล้าลา ลาลันหล่า หล่าลาลันลา
C Em Dm G
ล้าอาฮา หู่ฮูฮูฮู ล้าลาลาลันหล่า

C Em
โอ้ความรัก โปรดมองฉัน
Dm G C
บางเวลา เราพบกันเมื่อวันช้ำใจ
Em Dm G
เธอเข้ามา โอบกอดฉันไว้แผ่วเบา
C Em
โอ้ความรัก ที่อ่อนหวาน
Dm G C
โปรยความงาม พาหัวใจฉันลอยล่องไป
Em Dm G C
ดูซิดู เธออยู่ไหน เจ้าความรักฉันอยากเจอเธอ

Em Dm G C
เย้เยยา ยายัยยา ฮ้าฮาฮา เย้เยยา
Em Dm G C
ฮู้ฮูฮู ฮูลันลา รักเธอโอ้ความรัก
Em Dm G C
เย้เยยา ยายัยยา ฮ้าฮาฮา เย้เยยา
Em Dm G C
เธอทำได้ทุกๆอย่าง โอ้ความรัก ฉันรักเธอ
http://www.musicatm.com/thai/คอร์ดเพลง-Love-1448.html
ดาวน์โหลด Full Song
กด *424243083496584
กด *424243083496584
ดาวน์โหลด Truetone
กด *424218083496584
กด *424218083496584
กด *424218083496584
ดาวน์โหลด Poly
กด *424214083496584
กด *424214083496584
กด *424214083496584
ดาวน์โหลด Mono
กด *424211083496584
กด *424211083496584
กด *424211083496584
* อัตราค่าบริการดาวน์โหลด Fullsong, Truetone, Poly, Mono : 35 บาท/เพลง
ส่งเพลงนี้ให้เพื่อน
วันที่โพสต์ : 25 ก.พ.2547,19:27น.
จำนวนผู้ชม : 111783 คน / แสดงความคิดเห็น : 28 ครั้ง
โพสต์โดย


จาก: Pakradox
Guest
เพลงฮิต
เพลงใหม่
เพลงแนะนำ
Fanpage
ข่าวสารจากเว็บครับ
เลือกแสดงเฉพาะ :

  • Bangky^^
    Guest
  • 11 เม.ย.2547,16:15น.
    คอร์ดเพลงนี้ยังไม่มีคะแนน
    (อย่าลืม ช่วยกันกดให้คะแนนคอร์ดเพลงที่คุณชื่นชอบ หรือตัดคะแนนคอร์ดที่คุณไม่ชอบได้เลย)
    สำหรับ  intro หลัง ท่อน hook

    ง่ายๆคับ

    ****************

    ตีคอร์ด C ลง 9 ครั้ง

    E-------------------------------
    B---1--0-------------------------
    G----------2--0------------------
    D------------------4--3---0--------
    A---------------------------------------
    E-------------------------------------

    ตีคอร์ด C ลง 9 ครั้ง

    E-------------------------------------
    B---------------------------0--1--------
    G-------------------0--2----------------
    D-------0--3--4--------------------------
    A----3---------------------------------
    E-------------------------------------

    แล้วก็เล่นอันแรกซ้ำ

    แค่นั้นแหละ

    สังเกตดีๆ มันเปนการไล่ตัวโน้ต ธรรมดานั้นเอง

    *******คิดถึงกิ๊ฟ********
  • PFC
    Guest
  • 26 มี.ค.2548,06:46น.
    Bangky สุดยอด ขอบคุนฮะ          
  • กูเจ๋ง
    Guest
  • 29 มี.ค.2548,09:56น.
    ไม่เหมือนวะ
    ไปหัดมาใหม่ไป
  • 55555+
    Guest
  • 1 ธ.ค.2548,16:54น.
     
  • Pued
    Guest
  • 11 ธ.ค.2548,00:52น.
    ไม่เหมือนเลยจิง
  • เต้
    Guest
  • 1 พ.ย.2549,01:30น.
    คิดถึง เอ๊ะ
  • อยากเล่นได้
    Guest
  • 10 ธ.ค.2549,10:07น.
    ขอเเทบหน่อยเอาแบบตรงๆเลยนะงับมือใหม่อะ
  • TDox
    Guest
  • 19 ธ.ค.2549,20:35น.
    ตรง 3 4 เปลี่ยนเป็น 2 3
    ส่วนตรง 4 3 เปลี่ยนเป็น 3 2
    ม่ายช่ายหรอคับ
    (ไม่แน่ใจนะ ลองไปเล่นกันดู)
  • POD
    Guest
  • 22 ก.พ.2550,23:02น.
    เค้า ก้ ถอดให้แล้ว ทำไมต้องไปว่าเค้า ด้วย ล่ะ

  • cowboylife
    Guest
  • 11 ก.ค.2550,14:05น.
    คอร์ดเพลงนี้ยังไม่มีคะแนน
    (อย่าลืม ช่วยกันกดให้คะแนนคอร์ดเพลงที่คุณชื่นชอบ หรือตัดคะแนนคอร์ดที่คุณไม่ชอบได้เลย)
    ตีคอร์ด C ลง 9 ครั้ง

    E-------------------------------
    B---1--0-------------------------
    G----------2--0------------------
    D------------------4--3---0--------
    A---------------------------------------
    E-------------------------------------

    ตีคอร์ด C ลง 9 ครั้ง

    E-------------------------------------
    B---------------------------0--1--------
    G-------------------0--2----------------
    D-------0--3--4--------------------------
    A----3---------------------------------
    E-------------------------------------


    E-------------------------------------
    B-----1--1--0--0-----------------
    G-------------------2--0--0-----------0-
    D------------------------------3---3
    A----------------------------------
    E-------------------------------------
  • คนผ่านมา
    Guest
  • 12 ก.ย.2550,23:00น.
    เค้าโพสถูกแล้วใครเถียงอีกกุจะตบปากแม่ง
  • เบื่อเกรียน
    Guest
  • 2 พ.ย.2550,20:59น.
    เราว่าตรงแล้วนะ

    พวกนายเล่นไม่เป็นเปล่าที่ว่าไม่ตรงอ่ะ
  • เจ้าชายโรแมนติค
    Guest
  • 1 ธ.ค.2550,08:41น.
    คอร์ดเพลงนี้ยังไม่มีคะแนน
    (อย่าลืม ช่วยกันกดให้คะแนนคอร์ดเพลงที่คุณชื่นชอบ หรือตัดคะแนนคอร์ดที่คุณไม่ชอบได้เลย)


    ผมลองเล่นแบบไล่สเกลดูอ่ะครับ(โพสครั้งแรกครับ ผิดพลาดยังไงก็ขออภัยด้วย)

    ตีคอร์ดC (กี่ครั้งก็ไม่รู้นะ เล่นตามจังหวะเอาอ่ะครับ อิอิ)

    (3)---55---44---333--0--------------(เบิ้ลปิ๊คเอานะครับ)
    (4)---------------------------------------
    (5)---------------------------------------
    (6)---------------------------------------

    ตีคอร์ดC อีกรอบ
    (3)---------------------0-------
    (4)-------------------4--------
    (5)---------4--5--7----------
    (6)---5--7--------------------

    ฟังเพลงนี้ไป ลองเล่นไปบ่อยๆนะ ส่วนตัวผมเล่นแบบนี้ ที่ผมบอกอาจจะเป็นแค่แนวทางSOLOเพลงนี้
1

ขอเชิญร่วมแสดงความคิดเห็นครับ

คลิกที่รูป เพื่อแทรกรูปลงในข้อความ
  • Member :
    username
    password
  • Not a member :
    name
    email
Loading