Loading

Tab เพื่อนสนิท

เอ็นโดรฟิน (Endorphine)

อัพโหลดคลิปเพลงนี้ที่คุณ ร้อง/เล่น ด้วยตัวคุณเอง ได้แล้ววันนี้
ระหว่างการทดสอบระบบหากพบข้อผิดพลาด กรุณาแจ้งที่นี่
Print
เพื่อนคนนึงแอบรักเธอ  เก็บงำความลับนั้นอยู่ภายใน
ก็ไม่เคยเปิดเผยไป ด้วยกลัวจะเสียใจ จะเสียเธอ

* ปิดบังอยู่ตั้งนาน และมันอัดอั้นใจ ยิ่งเราใกล้ชิดกัน ยิ่งหวั่นไหว
เธอสบตา กลับหลบตาเธออยู่เรื่อยไป

** ห่างกันเพียงเอื้อมมือ แต่มันคือแสนไกล
ยิ่งเธอเป็นเหมือนเพื่อนสนิท ยิ่งไม่มีสิทธิ์จะบอกไป

หากเป็นใคร ไม่ใช่เธอ ซักวันอาจให้รู้อาจบอกไป
แต่เป็นเธอที่คุ้นเคย ก็เลยต้องยับยั้งคอยชั่งใจ

(ซ้ำ *,**,**)
ว่ารักเธอ

(ซ้ำ **,**)
ว่ารักเธอ

http://www.musicatm.com/thai/คอร์ดเพลง-เพื่อนสนิท-เอ็นโดรฟิน-(Endorphine)-3000.html
ดาวน์โหลด Full Song
กด *424243126606584
กด *424243126606584
ดาวน์โหลด Truetone
กด *424218126606584
กด *424218126606584
กด *424218126606584
* อัตราค่าบริการดาวน์โหลด Fullsong, Truetone, Poly, Mono : 35 บาท/เพลง
ส่งเพลงนี้ให้เพื่อน
วันที่โพสต์ : 5 ต.ค.2547,10:37น.
จำนวนผู้ชม : 292829 คน / แสดงความคิดเห็น : 84 ครั้ง
โพสต์โดย


จาก: ปาล์ม
Guest
เพลงแนะนำ
เพลงฮิต
เลือกแสดงเฉพาะ :

  • ทด
    Guest
  • 5 ต.ค.2547,11:11น.
    intro กะ solo โดนใจจิบเป็งเลย
    ขอแทปด้วยเด้อขอด่วนนะครับ เอาให้เหมือนอ่ะ
  • โทยะ
    Guest
  • 7 ต.ค.2547,08:51น.
    ขอแทปด้วย  ด่วนๆๆๆๆๆๆๆๆๆๆๆๆๆๆๆๆๆๆๆๆๆๆๆๆๆๆๆๆๆๆๆๆๆๆๆๆๆๆๆๆๆๆ เลยๆๆๆๆๆๆๆๆๆๆๆๆๆๆๆๆๆๆๆๆๆๆๆๆ  เอาแบบเหมือนให้มากที่สุดอ่ะฮะ 
  • demam
    Guest
  • 7 ต.ค.2547,21:54น.
    ขอด้วยครับ
  • ซาดิส 1234
    Guest
  • 8 ต.ค.2547,09:43น.
                                 : 
  • MAW
    Guest
  • 18 ม.ค.2548,09:19น.
    โดนว๊ ะ   MAW 504  T.Oเข้าอย่างจัง   
  • พลอย
    Guest
  • 16 ก.พ.2548,09:54น.
    ชอบเพลงนี้มาก ๆ โดน 
  • หนุ่มนครปฐม
    Guest
  • 3 มี.ค.2548,10:24น.
    solo
    1>/----------------------------/----------------------------/
    2>/------------------13--10-/------------------13--10-/
    3>/------------10-------------/------------10------------/
    4>/-10--12-------------------/-10--12-----------------/
    5>/-----------------------------/---------------------------/
    6>/-----------------------------/---------------------------/

    1>/-------------------------------------------10--------------------------------------------------/
    2>/-------10-------13ดัน1เสียงแล้วลง13------------------------------------------------------/
    3>/-12--------12--------------------------------12ดันครึ่งเสียง--10-------10สไลไป-11----/
    4>/-------------------------------------------------------------------------12---------------------/
    5>/--------------------------------------------------------------------------------------------------/
    6>/--------------------------------------------------------------------------------------------------/

    1>/--------------------------------------------------------------------------------------/
    2>/---------10-11สใลไป-13--11--10--------------------------13สใล-13--13--/
    3>/-----11----------------------------------12--10-9-10----------------------------/
    4>/-12--------------------------------------------------------10-----------------------/
    5>/---------------------------------------------------------------------------------------/
    6>/---------------------------------------------------------------------------------------/

    1>/-----------------------------------------12-13-12-13-12-13--------------------------/
    2>/------------15-14--10-10------13-----------------------------13------13ดัน1เสียง-/
    3>/--------------------------------14--------------------------------------14----------------/
    4>/-10--12-----------------------------------------------------------------------------------/
    5>/---------------------------------------------------------------------------------------------/
    6>/---------------------------------------------------------------------------------------------/

    1>/-15ดันครึ่งเสียง--13-----13สใลไป15แล้วกลับ13--/--12-------/
    2>/-------------------------15-----------------------------/--------13-/
    3>/------------------------------------------------------------------------/
    4>/------------------------------------------------------------------------/
    5>/------------------------------------------------------------------------/
    6>/------------------------------------------------------------------------/

    จบจ้า
  • ................
    Guest
  • 28 มี.ค.2548,03:11น.


    >> เพลง : เพื่อนสนิท (เพื่อนพิเศษ)
    >> ศิลปิน : Endorphine [เอ็นโดรฟิน]
    >> อัลบั้ม : พริก
    INTRO>>>F | C | Dm7 | Am | Bb | C7sus4 | C

    F C
    เพื่อนคนนึง แอบรักเธอ
    Gm C F
    เก็บงำความลับนั้น อยู่ภายใน
    F C
    ก็ไม่เคย เปิดเผยไป
    Gm C F
    ด้วยกลัวจะเสียใจ จะเสียเธอ

    Bb C
    A>>ปิดบังอยู่ตั้งนาน และมันอัดอั้นใจ
    Bb Gm
    ยิ่งเราใกล้ชิดกัน ยิ่งหวั่นไหว
    F Bb C7 C7sus4
    เธอสบตา กลับหลบตา เธออยู่เรื่อยไป

    C7sus4 F C
    B>>ห่างแค่เพียงเอื้อมมือ แต่มันคือแสนไกล
    Dm
    ยิ่งเธอเป็นเหมือนเพื่อนสนิท
    C Bb C7sus4 | C
    ยิ่งไม่มีสิทธิ์จะบอกไป ฮืม........

    F C
    หากเป็นใคร ไม่ใช่เธอ
    Gm C F
    สักวันอาจให้รู้ อาจบอกไป
    F C
    แต่เป็นเธอ ที่คุ้นเคย
    Gm C F
    ก็เลยต้องยับยั้ง คอยชั่งใจ

    Bb C
    A>>ปิดบังอยู่ตั้งนาน และมันอัดอั้นใจ
    Bb Gm
    ยิ่งเราใกล้ชิดกัน ยิ่งหวั่นไหว
    F Bb C7 C7sus4
    เธอสบตา กลับหลบตา เธออยู่เรื่อยไป

    C7sus4 F C
    B>>ห่างแค่เพียงเอื้อมมือ แต่มันคือแสนไกล
    Dm
    ยิ่งเธอเป็นเหมือนเพื่อนสนิท
    C Bb
    ยิ่งไม่มีสิทธิ์จะบอกไป

    C7sus4 F C
    B>>ห่างแค่เพียงเอื้อมมือ แต่มันคือแสนไกล
    Dm
    ยิ่งเธอเป็นเหมือนเพื่อนสนิท
    C Bb F C7sus4 | C
    ยิ่งไม่มีสิทธิ์จะบอกไป ว่ารักเธอ

    SOLO>>A | Bb | Dsus4 | D | Gm | C7 | F |
    A7 | Dm | C | Bb | C7sus4 | C

    C7sus4 F C
    B>>ห่างแค่เพียงเอื้อมมือ แต่มันคือแสนไกล
    Dm
    ยิ่งเธอเป็นเหมือนเพื่อนสนิท
    C Bb
    ยิ่งไม่มีสิทธิ์จะบอกไป

    C7sus4 F C
    B>>ห่างแค่เพียงเอื้อมมือ แต่มันคือแสนไกล
    Dm
    ยิ่งเธอเป็นเหมือนเพื่อนสนิท
    C Bb F C7sus4 | C
    ยิ่งไม่มีสิทธิ์จะบอกไป ว่ารักเธอ

    SOLO>>Dm | C | G | Bb | Csus4 | F



    www.365jukebox.com
  • Zerust
    Guest
  • 29 มี.ค.2548,17:48น.
    เราเอากีต้าร์เล่นแทนเปียโนตอนขึ้นต้น  ก็ไม่มีคนเล่นเปียโนนิ  กันดารปะ 
  • .
    Guest
  • 11 เม.ย.2548,10:55น.
          
  • ไม่มัน
    Guest
  • 29 เม.ย.2548,22:19น.
    ทำไมเเท็บมันเยอะจิ้บ          
  • mak
    Guest
  • 4 มิ.ย.2548,06:15น.
    ผมม่ายเข้าใจ 13สใล-13--13 นี่คือยังไงอะ
  • คนสวย
    Guest
  • 13 ส.ค.2548,13:45น.
    ไม่เข้าใจก็ควายไง   
  • วรัญญษ
    Guest
  • 15 ส.ค.2548,16:50น.
    DA    น่ารักดี         
  • แนน
    Guest
  • 20 ม.ค.2549,13:23น.
    ชอบเพลงนี้มากๆค่ะ เพราะว่าตรงกับชีวิตจริงของฉันเลยค่ะ
  • อีฟ
    Guest
  • 10 ก.พ.2549,16:22น.
    มานยากอยากเล่นเปงอ่า 
    ((ขอคอร์ดกีต้าร์))
  • ขอบคุนคับ
    Guest
  • 3 มี.ค.2549,14:37น.
    แกะ solo เก่งจัง
  • อั๋น วงกลม
    Guest
  • 23 มี.ค.2549,12:09น.
    เพื่อนรักเพื่อนนะได้ แต่อย่างแย่งแฟนเพื่อนละกัน 
    อิอิๆ D:\ÃÙ»\¡ÒÃìµÙ¹\untraman.gif
  • mint...
    Guest
  • 28 มี.ค.2549,03:17น.
    ฟังแย้ววช่างเศร้าเหลือเกิน... 
  • เอ
    Guest
  • 19 มิ.ย.2549,15:49น.
    พอใช้ได้คับ
  • peak
    Guest
  • 13 ก.ย.2549,20:53น.
    ถึงรักแค่ไหนก็เป็นได้แค่เพื่อนเท่านั้น  
  • วินัย สมประสงค์
    Guest
  • 24 ก.ย.2549,16:15น.
    พิธีมอบรางวัลเกียรติคุณทางการแสดงครั้งที่ 3/2548 สนับสนุนและอนุเคราะห์โดย หอภาพยนตร์แห่งชาติ กรมศิลปากรวันศุกร์ ที่ 25 ส.ค. 2549 ณ โรงภาพยนตร์ หอภาพยนตร์แห่งชาติ ท่าวาสุกรี รางวัลเกียรติคุณสดุดีนักแสดงหญิงยอดเยี่ยมในบทนำ ได้แก่ ลลนา สุลาวัลย์ จากวัยอลวน 4 ตั้ม-โอ๋ รีเทิร์น 
  • ตุ๊ก
    Guest
  • 2 ธ.ค.2549,10:47น.
    เหมื่อนกันเลยเเนน
  • เพื่อนรัก รักเพื่อน
    Guest
  • 7 ธ.ค.2549,20:11น.
    สุดท้ายก็คือเพื่อนกัน  : 
  • วินัย สมประสงค์
    Guest
  • 27 ธ.ค.2549,22:14น.
    Movie Max Awards 2006สาขาภาพยนตร์ไทย 01 ภาพยนตร์ยอดเยี่ยม เพื่อนสนิท (จีทีเอช) 02 ผู้กำกับภาพยนตร์ยอดเยี่ยม คมกฤษ ตรีวิมล (เพื่อนสนิท) 03 นักแสดงนำชายยอดเยี่ยม ซันนี่ สุวรรณเมธานนท์ (เพื่อนสนิท) 04 นักแสดงนำหญิงยอดเยี่ยม วรนุช วงศ์สวรรค์ (เฉิ่ม) 05 นักแสดงสมทบชายยอดเยี่ยม สนธยา ชิตมณี (มหาลัยเหมืองแร่) 06 นักแสดงสมทบหญิงยอดเยี่ยม ลลนา สุลาวัลย์ (วัยอลวน 4) 07 บทภาพยนตร์ยอดเยี่ยม เพื่อนสนิท 08 กำกับภาพยอดเยี่ยม มหาลัยเหมืองแร่4 09 ลำดับภาพยอดเยี่ยม เพื่อนสนิท 10 กำกับเสียงยอดเยี่ยม เพื่อนสนิท กำกับศิลป์ยอดเยี่ยม มหาลัยเหมืองแร่ 12 รางวัลนักแสดงเกียรติยศ (รางวัลพิเศษ) จรัล เพ็ชรเจริญ (สีเทา) (มหาลัยเหมืองแร่)
  • แอบชอบ
    Guest
  • 14 ก.พ.2550,12:48น.
    คำก็เพื่อน สองคำก็เพื่อน
  • เด็ก*ลำพูน
    Guest
  • 19 มิ.ย.2550,20:36น.
    เพราะมากๆเลยอ่ะ ตรงจัยสุด
    ตรงกับเราตอนนี้ด้วย ((ขอคอร์ดกีต้าร์))
  • zanetti
    Guest
  • 9 พ.ย.2550,13:38น.
    ขอชื่อผู้แต่งเพลงครับ
  • pig
    Guest
  • 2 ธ.ค.2550,22:34น.

ขอเชิญร่วมแสดงความคิดเห็นครับ

คลิกที่รูป เพื่อแทรกรูปลงในข้อความ
  • Member :
    username
    password
  • Not a member :
    name
    email