MusicATM : แทปเพลง รอ แคลช (Clash) แทป แทปกีต้าร์ รอ Tab guitar กีต้าร์ แท็บกีต้าร์

คอร์ดเพลง เนื้อเพลง ฟังเพลง

Tab รอ

แคลช (Clash)

Print
ฉันเป็นเพียงเส้นทางแห่งรักเก่า  ที่เทอเดินข้ามไป
ในเมื่อความหวั่นไหวให้เทอ เดินไปกับเขา
เวลาเปลี่ยนชั้นเป็นคนเก่า
ตัวเทอเปลี่ยนชั้นเป็นคน..เศร้า
ในเมื่อเรา..ต้องเลิกรา

ขอ..ชั้นคงตัดใจไม่ไหว
จากนี้..แม้รุ้ว่าเทอ..มีใครยังไง

** ผิดเลยใช่ไหมที่ชั้นยังรักเทอ
จะให้ได้ยังไงเท่าไหร่ชั้นก้จะรอ
เทอเมื่อไหร่..เขาไม่สนให้เทอต้องเสียใจ
เจ็บปวดใจทนไม่ไหว เทอยังมีชั้นที่รอ..รอแต่เทอ

ชั้นจะจำสิ่งเดียวที่งดงาม..นั้นก้คือภาพเทอ
ต่อให้เทอมีเขาข้างกาย
ในวันนี้ นาทีที่เขาเปนคนใหม่
ใจเทอลืมชั้นก้คงง่าย
ตัวชั้นเองยังรุ้เลย

ขอ...ชั้นคงตัดใจไม่ไหว
จากนี้ แม้รุ้ว่าเทอ มีใครยังไง

ซ้ำ ( ** , ** ,** )
http://www.musicatm.com/thai/คอร์ดเพลง-รอ-7244.html
ดาวน์โหลด Full Song
กด *424243078846584
กด *424243078846584
ดาวน์โหลด Truetone
กด *424218078846584
กด *424218078846584
กด *424218078846584
ดาวน์โหลด Poly
กด *424214078846584
กด *424214078846584
กด *424214078846584
ดาวน์โหลด Mono
กด *424211078846584
กด *424211078846584
กด *424211078846584
* อัตราค่าบริการดาวน์โหลด Fullsong, Truetone, Poly, Mono : 35 บาท/เพลง
ส่งเพลงนี้ให้เพื่อน
วันที่โพสต์ : 26 พ.ย.2549,20:57น. 124.157.244.181
จำนวนผู้ชม : 250564 คน / แสดงความคิดเห็น : 223 ครั้ง
โพสต์โดย


จาก: tar
เข้าร่วม: 8 ปีก่อน
เพลง: 0
โพสต์: 1
เพลงฮิต
เพลงใหม่
เพลงทั้งหมด
เพลงแนะนำ
Fanpage
ข่าวสารจากเว็บครับ
เลือกแสดงเฉพาะ :

  • NiGSiE
    Guest
  • 25 ธ.ค.2549,16:36น.
    ยังไม่มีคะแนนสำหรับคอร์ดที่ดีที่สุด
    ช่วยกันกดให้คะแนนคอร์ดเพลงที่คุณชื่นชอบเพื่อนำขึ้นมาจัดแสดงไว้บนสุดนี้

    intro Line1
    Dadd9 Dadd9
    1/---------------2--------2-|---------------2-----------
    2/----5----------------5----|----5------------5-----5---
    3/-------2----------2-------|--------2-----------2------
    4/-0---------0--------------|-0---------0---------------
    5/---------------------------|---------------------------
    6/---------------------------|---------------------------

    Dadd9(Bass Db) Dadd9(Bass Db)
    1/---------------2--------2-|---------------2-----------
    2/----5----------------5----|----5----------------5-----
    3/--------2---------2-------|--------2---------2--------
    4/---------------------------|---------------------------
    5/-4----------4-------------|-4----------4--------------
    6/---------------------------|---------------------------

    Bm7 Bm7
    1/---------------2--------2-|---------------2--------2--
    2/----3----------------3----|----3----------------3-----
    3/--------2---------2-------|--------2---------2--------
    4/---------------------------|---------------------------
    5/-2----------2-------------|-2----------2--------------
    6/---------------------------|---------------------------

    G6 A
    1/---------------0--------0-|------------------0--------
    2/----3----------------3----|----------2h3--------------
    3/--------0---------0-------|-------2-------2-----------
    4/---------------------------|----0----------------------
    5/---------------------------|-0-------------------------
    6/-3---------3--------------|---------------------------

    intro Line2

    1/-----------------------------------------------------
    2/----------------------------------------------------
    3/----------------------------------------------------
    4/-9/11--11--11/12--11--9--7--7/9-----------
    5/--------------------------------11/12--12-------
    6/---------------------------------------------------

    1/------------------------------------------------------
    2/-------------------------------------------------------
    3/--------------------------------------------------------
    4/-9/11--11--11--12/14----------------14-------
    5/----------------------11/12--12/14-----14/12-
    6/-------------------------------------------------------

    ปล.คิดถึงแอนจังเยย
  • พัชชี่ส์
    Guest
  • 26 พ.ย.2549,21:01น.
    ชอบเพลงนี้มาก ๆ เลยค่ะ  ขอบคุณนะคะ
  • เหอๆ
    Guest
  • 26 พ.ย.2549,21:02น.
    ฟังแร้วๆๆ

    กะลังหาเนื้ออยุ่เรย

    เพราะมากๆ เลยอ่า
  • เด็กดี
    Guest
  • 26 พ.ย.2549,21:09น.
    อยาโหลดจังช่วยบอกหน่อยครับ
  • จั๊ก
    Guest
  • 26 พ.ย.2549,21:20น.
    จะเอาเพลงแอดมานะshinamaru_jukkyhotmail.คอม

    ขอคอร์ดด่วน
  • 309
    Guest
  • 26 พ.ย.2549,21:29น.
    ชอบมากกกกกกกกกกแร้วจารอซื้อ
  • Kudo_pluem
    Guest
  • 26 พ.ย.2549,21:35น.
    เพราะดีได้ฟังแค่ทอนhookก็เพาะแล้ว
    นี้ฟังเต็มเพลงยิ่งชอบเลย
    แถมมาสตายแบบที่เราชอบอีกอย่างเงี้ยรักตาย
    ( ตอนนี้ความรักของเรากำลังเป็นแบบนี้พอดีเลย )
  • ติ่น ติ๋น
    Guest
  • 27 พ.ย.2549,10:26น.
    ฟังแล้วเสียว  (ขอโน๊ตหน่อยดิดิ) จะเก็บไปเล่นว่าว  
  • ติ่น ติ๋น
    Guest
  • 27 พ.ย.2549,10:26น.
    ฟังแล้วเสียว  (ขอโน๊ตหน่อยดิดิ) จะเก็บไปเล่นว่าว  
  • วันใหม่
    Guest
  • 27 พ.ย.2549,12:25น.
    แจกเพลง clash-clashing 12 เพลง ด่วน
    p1 http://www.upload.th.md/download.php?id=195ADDF2
    p2 http://www.upload.th.md/download.php?id=981ABD53
  • สาวกแคลช
    Guest
  • 27 พ.ย.2549,19:28น.
    เราจะอยู่กับแคลชตลอดไป
    ไม่ว่าอีกนานแสนนาน........
  • งง
    Guest
  • 27 พ.ย.2549,22:05น.
    ยังมะออกอัลบั้ม mp3ออกละ-*-
  • TuyPotato
    Guest
  • 27 พ.ย.2549,22:15น.
    เพลง ของ วง นี้จะ วางแผง วันที่ 28 เดือนนี้นะคับ รีบไปซื้อสะ
  • ไร้สาระ
    Guest
  • 28 พ.ย.2549,19:49น.
    คอร์ดเพลงนี้ยังไม่มีคะแนน (อย่าลืม ช่วยกันกดให้คะแนนคอร์ดเพลงที่คุณชื่นชอบ หรือตัดคะแนนคอร์ดที่คุณไม่ชอบ)
    รอ
    Artist : Clash
    Album : Crashing

    Intro : D/ A+Dd / Bm/ G A//

    D A+Dd Bm G A D
    ฉันเปนเพียงเส้นทางแห่งรักเก่าที่เธอเดินข้ามไปในเมื่อความหวั่นไหวให้เธอเดินไปกับเขา
    A+Dd Bm G
    เวลาเปลี่ยนฉันเป็นคนเก่า ตัวเธอเปลี่ยนฉันเป็นคนเศร้าในเมื่อเราต้องเลิกรา

    Bm G
    * ขอ...ฉันคงตัดใจไม่ไหว
    Bm G
    จากนี้...แม้รู้ว่าเธอมีใครยังไง

    D A+Db Bm G A
    ** ผิดเลยใช่ไหม ที่ฉันยังรักเธอ จะให้ตายยังไง เท่าไหร่ฉันก็จะรอ
    D A+Db Bm G A D
    ถ้าเมื่อไหร่ เขาไม่สนจนเธอต้องเสียใจ เจ็บปวดทนไม่ไหว เธอยังมีฉันที่รอ. ..รอแต่เธอ
    D A+Db Bm G A
    ฉันจะจำสิ่งเดียวที่งดงาม นั้นก็คือภาพเธอ ต่อให้เธอมีเขาข้างกาย
    D A+Db Bm G A
    ในวันนี้ นาทีที่เขาเป็นคนใหม่ ใจเธอลืมฉันก็คงง่าย แต่ฉันเองยังเหมือนเดิม

    (*,**)

    Solo : D/A+Db/Bm/G A//

    (**,**)
  • IllusioN_
    Guest
  • 28 พ.ย.2549,21:02น.
    คอร์ดเพลงนี้ยังไม่มีคะแนน (อย่าลืม ช่วยกันกดให้คะแนนคอร์ดเพลงที่คุณชื่นชอบ หรือตัดคะแนนคอร์ดที่คุณไม่ชอบ)
    อินโทรคับ

    2---5/7-7-8-7--5-3/5-------------

    2--2/3-3--5/7-7-----7-7--8/10--2/3-----------------------

    1-----------5-------
    2----3/5-----5/3--------

    ลองดูนะๆ
  • Krork C4
    Guest
  • 29 พ.ย.2549,16:49น.
    ยังไม่ได้ฟังเลยอะ 
  • เด็กคลอง13
    Guest
  • 30 พ.ย.2549,09:08น.
    เด็กหนองเสือ......คับ          
  • สาวกแคลช1234
    Guest
  • 30 พ.ย.2549,10:05น.
    ชอบพี่แคลชมากครับ(เท้สุดๆๆๆๆๆๆๆๆๆๆๆๆๆๆๆๆๆๆๆๆๆๆๆๆๆๆๆๆๆ)       
  • seyru
    Guest
  • 30 พ.ย.2549,18:49น.
    :ซื้อแล้วคับพี่น้อง  ชอบมากเยย
  • yoshimura
    Guest
  • 2 ธ.ค.2549,08:53น.
    คอร์ดเพลงนี้ยังไม่มีคะแนน (อย่าลืม ช่วยกันกดให้คะแนนคอร์ดเพลงที่คุณชื่นชอบ หรือตัดคะแนนคอร์ดที่คุณไม่ชอบ)
    อินโทรแก้ไข นะครับ 

    2 ---5/7-7-8-7-5---------------------------------10---------------10-------
    3 ------------------7-7/9--5/7-7/9-9/11-11-----6p5---7p9----9/7-



    ของผมเป็นแบบนี้นะคับ ลองเพื่อนๆเล่นกันดู ยังแนะนำหน่อยนะคับ
  • KIRA
    Guest
  • 2 ธ.ค.2549,18:24น.
    ผีป้าเมิงสิสัส แมร่งหัดซื้อของจิงมั่งสิว่ะ ถ้ามีคนแบบพวกเมิงมากๆ แล้วใครจะทำเพลงให้เมิงฟัง ฟายเอ้ย
  • ริวอิจิ
    Guest
  • 3 ธ.ค.2549,16:29น.
    จริงๆแล้วเค้ามี Producer เป็นวง Luna Sea ของญี่ปุ่นครับ
    ชุดก่อนๆก็มีหลายวงมาดูแลให้ ไม่ว่าจะเป็น X หรือ L'Arc

    .....เปิดหูซะบ้างเถอะครับ 5 / 6 / 11 / 21 /24 / 32
  • Mike Shinoda
    Guest
  • 4 ธ.ค.2549,04:57น.
    มี Linkin Park มาโปรดิวเซอร์ให้ด้วยครับ
    ชุด Brain Storm น่ะ
  • ...
    Guest
  • 4 ธ.ค.2549,12:54น.
    สนใจดาวโหลดเพลงใหม่ ๆ เข้าไปดาวโหลดได้ที่ 

    www.fanmanu.th.gs เพลงใหม่อัพเดททุกอาทิตย์ ฟรี
  • กดด
    Guest
  • 4 ธ.ค.2549,18:11น.
    http://www.uploadtoday.com/download.php?6d56ecd98db39241818a84427bd04920  เจียมตัว     
  • 7 ธ.ค.2549,09:23น.
     ไม่เห็นมีTABเลยครับ 
  • 5
    Guest
  • 8 ธ.ค.2549,10:53น.
    54555
  • กดะด้
    Guest
  • 8 ธ.ค.2549,13:09น.
    เต้จังทอม
  • ......
    Guest
  • 12 ธ.ค.2549,11:02น.
    รักแคลชจริงต้องของจริงดิวะ  เรียงเพลงก็ไม่ถูก 
  • GT Mixz~Elevate
    Guest
  • 12 ธ.ค.2549,21:33น.
    คอร์ดเพลงนี้ยังไม่มีคะแนน (อย่าลืม ช่วยกันกดให้คะแนนคอร์ดเพลงที่คุณชื่นชอบ หรือตัดคะแนนคอร์ดที่คุณไม่ชอบ)
    อันนี้ชัวว์สุด เหมือน
    2)---5/7-7-8-7--5-3/5-------------

    2)--2/3-3--5/7-7-----7-7--8/10--2/3-----------------------

    1)-----------5-------
    2)----3/5-----5/3--------
  • no name
    Guest
  • 13 ธ.ค.2549,15:17น.
    คอร์ดเพลงนี้ยังไม่มีคะแนน (อย่าลืม ช่วยกันกดให้คะแนนคอร์ดเพลงที่คุณชื่นชอบ หรือตัดคะแนนคอร์ดที่คุณไม่ชอบ)
    อันนี้ถูกคับแน่นอน
    2)---5/7-7-8-7--5-3/5-------------

    2)--2/3-3--5/7-7-----7-7--8/10--2/3-----------------------

    1)-----------5-------
    2)----3/5-----5/3--------
  • เด็กน้อย
    Guest
  • 14 ธ.ค.2549,22:16น.
    ขอ solo หน่อยคร้าบ
  • sim
    Guest
  • 15 ธ.ค.2549,12:43น.
    อยากฟังเพลง รอ  มากๆๆๆๆๆ   อยากฟังๆ จะฟังได้ที่ไหนบ้างอ่า 
  • แฮ็ค วง เขียด
    Guest
  • 16 ธ.ค.2549,10:01น.
    ผมขอคอร์ดด้วยนะครับ ถ้าได้จะขอขอบคุณมากๆ ท่อนโซโล่ด้วย 
    ((ขอคอร์ดกีต้าร์))
  • คนขี้สงสัย
    Guest
  • 16 ธ.ค.2549,16:03น.
    อยากได้soloมีปะเกะให้หน่อยดิ
  • โบว์ พะเยา
    Guest
  • 18 ธ.ค.2549,15:35น.
    ชอบเพลงของพี่แบงค์มากโดยเฉพาะ รับได้ทุกอย่าง มือที่ไร้ไออุ่น 
    เธอจะอย่กับฉันตลอดไป ซบที่อกฉัน
  • ZeaZaa
    Guest
  • 18 ธ.ค.2549,16:09น.
    ชอบพี่แบงค์มั่กๆค้าบบบบบสุดยอดดดด
    ((ขอคอร์ดกีต้าร์))
  • BOOK
    Guest
  • 19 ธ.ค.2549,18:28น.
    คอร์ดเพลงนี้ยังไม่มีคะแนน (อย่าลืม ช่วยกันกดให้คะแนนคอร์ดเพลงที่คุณชื่นชอบ หรือตัดคะแนนคอร์ดที่คุณไม่ชอบ)
    รอ
    Artist : Clash
    Album : Crashing

    Intro : D/ A+Dd / Bm/ G A//

    D A+Dd Bm G A D
    ฉันเปนเพียงเส้นทางแห่งรักเก่าที่เธอเดินข้ามไปในเมื่อความหวั่นไหวให้เธอเดินไปกับเขา
    A+Dd Bm G
    เวลาเปลี่ยนฉันเป็นคนเก่า ตัวเธอเปลี่ยนฉันเป็นคนเศร้าในเมื่อเราต้องเลิกรา

    Bm G
    * ขอ...ฉันคงตัดใจไม่ไหว
    Bm G A
    จากนี้...แม้รู้ว่าเธอมีใครยังไง

    D G Bm G A
    ** ผิดเลยใช่ไหม ที่ฉันยังรักเธอ จะให้ตายยังไง เท่าไหร่ฉันก็จะรอ
    D G Bm G/A D
    ถ้าเมื่อไหร่ เขาไม่สนจนเธอต้องเสียใจ เจ็บปวดทนไม่ไหว เธอยังมีฉันที่รอ. ..รอแต่เธอ
    D A+Db Bm G A
    ฉันจะจำสิ่งเดียวที่งดงาม นั้นก็คือภาพเธอ ต่อให้เธอมีเขาข้างกาย
    D A Bm G A
    ในวันนี้ นาทีที่เขาเป็นคนใหม่ ใจเธอลืมฉันก็คงง่าย แต่ฉันเองยังเหมือนเดิม

    (*,**)

    Solo : D/A+Db/Bm/G A//

    (**,**)


    ผมว่าตงท่อนฮุกแบบนี้น่าจะเหมือนกว่านะครับ
  • RUKAWA
    Guest
  • 20 ธ.ค.2549,14:04น.
    ผมรีดได้แล้วครับ ผมรีดได้จริงๆ จากเด็ก ...
  • เอกศักดิ์
    Guest
  • 20 ธ.ค.2549,14:20น.

    อยากให้clashแสดงหนัง
  • มือใหม่555
    Guest
  • 23 ธ.ค.2549,20:10น.
    คอร์ดA+Db  จับยังไงมือใหม่ครับเพิ่งเล่นได้ยังไม่ถึง2เดือนเลยใครรู้ช่วยแนะนำ
  • อหิงสา
    Guest
  • 24 ธ.ค.2549,22:54น.
    ขอบคุณ
  • คนที่เฝ้ารอ
    Guest
  • 25 ธ.ค.2549,09:18น.
    เพลงนี้โดนใจผมมาก ตรงกับชีวิตผม ถึงเธอจะรักคนอื่น แต่ผมก็จะรอเธอต่อไป  
    ((ขอคอร์ดกีต้าร์))
  • 555
    Guest
  • 27 ธ.ค.2549,20:19น.
    ตั้งสายยังไงคับ ช่วยบอกทีครับ จะขอบพระคุณมากๆๆๆๆๆๆๆๆๆๆๆๆๆๆๆๆๆๆๆๆๆๆๆ 55555555555555 ((ขอคอร์ดกีต้าร์))
  • เนตร
    Guest
  • 31 ธ.ค.2549,19:45น.
    ชอบมากครับ เพลงนี้ โดนเต็มๆ
  • เนตรลาดบัง2F/2
    Guest
  • 31 ธ.ค.2549,19:57น.
    คอร์ดเพลงนี้ยังไม่มีคะแนน (อย่าลืม ช่วยกันกดให้คะแนนคอร์ดเพลงที่คุณชื่นชอบ หรือตัดคะแนนคอร์ดที่คุณไม่ชอบ)
     Intro ดรอปEเปง Eb ลดครึ่งเสียงอะ-- ใจปะ
    1>------------------------------------------------------------------------------------------------------
    2>----5/7-----7----7/8----7----5-------------------------------------------------------10-------
    3>----------------------------------------7---7/9------7---7----9----11--11- 11-11------6--7
    4>-----------------------------------------------------------------------------------------------------
    5>----------------------------------------------------------------------------------------------------
    6>----------------------------------------------------------------------------------------------------

    1>--------------------------------------------------------------------------------------------------
    2>------------9/10---------------------------------------------------
    3>----7/9-------------9/7---------------
    4>----------------------------------------------------------
    5>------------------------------------------------------------------------------------------------
    6>-------------------------------------------------------------------------------------------------

    ผิดตรงไหนขอโทดที เน้อคับ
  • เนตรลาดบัง
    Guest
  • 31 ธ.ค.2549,20:19น.
    ทอ่นHook
    ใครดูMv ผมเห็นพี่พล เล่นอยู่ อย่างเดียว คลาดว่านาจาเล่นแบบนี้ จนจบทอ่นฮุค

    1>-----------------------------------------------------
    2>-----------------------------------------------------
    3>-----------7--8-----7---------------------------
    4>---7--9----------7--------------------------------
    5>-----------------------------------------------------
    6>----------------------------------------------------
    ไล่ สเกลตามนี้เร็วๆ น่าจาเหมือน นะ
  • เนตร
    Guest
  • 31 ธ.ค.2549,20:23น.
    ท่อน ที่ร้องว่า
    ลีดเล่นแบบนี้มัง

    ขอ...............
    2>--5----7------5-------
    ฉันคงตัดใจไม่ไหว
    2>----5-----7----10-----7-----5----3
  • คนสวยค่ะ
    Guest
  • 2 ม.ค.2550,11:07น.
    ชอบมากๆเลยค่ะเพลนี้
  • Tixcom
    Guest
  • 2 ม.ค.2550,12:17น.
    Into รวมคอด D แบบ ใช้คอด D เล่นอินโทได้ ขอหน่อยครับ 
    ((ขอคอร์ดกีต้าร์))
  • ~~Lomsak~~City--coke--
    Guest
  • 3 ม.ค.2550,10:38น.
    outtro
    1--5--------0---------------------------------5
    2------7---------7----8----7-----8----7-----
    3----7---7----7---7----7-----7----7----7---
    4--0-------------------------------------------0
  • auto
    Guest
  • 3 ม.ค.2550,10:46น.
    อยากให้พี่ BANK มาดูพวกผมเล่นเพลงของพี่ม่าง
  • nauhgty boy
    Guest
  • 3 ม.ค.2550,11:32น.
    / คืออะไรไม่เข้าใจช่วยตอบที ((ขอคอร์ดกีต้าร์))
  • -*-
    Guest
  • 4 ม.ค.2550,11:06น.
    ดูของผมไมครับ
    1.--1---2---3---4---5---6--7--8--9*-* *-*
  • มือใหม่หัดกีตาร์
    Guest
  • 4 ม.ค.2550,16:16น.
    ดู TAB ยางงัยคับสอนหน่อยครับ
    บอกทีครับ((ไม่ได้แกล้งโง่))
    ขอบคุณมากๆครับ
  • มือกีต้าเทพ วง miracle
    Guest
  • 6 ม.ค.2550,21:54น.
    ชอบวงแคลชตั้วแต่อัลบั้ม oneแล้วอะเพราะๆมากๆๆวงพวกผมเล่นของวงแคลชได้ทุกเพลงเลยอะครับ
  • devil
    Guest
  • 7 ม.ค.2550,12:08น.
    พี่พลเกลากีต้ายังไงอ่าคับเพลงนี้ -*- บอกที เซงจิต

    แล้วโซโล่ตอนกลางของพี่แฮคอ่าคับ ใครได้บอกทีคับ

    ขอบคุณคับ ((ขอคอร์ดกีต้าร์))
  • เดกงง
    Guest
  • 7 ม.ค.2550,12:10น.
    ขอวิธีเกาเพลงนี้หน่อย ...................................



    ขอโซโล่ตอนกลางด้วยจ้า...........................



    ((ขอคอร์ดกีต้าร์))
  • ยุท S.p.y.
    Guest
  • 7 ม.ค.2550,18:23น.
    คอร์ดเพลงนี้ยังไม่มีคะแนน (อย่าลืม ช่วยกันกดให้คะแนนคอร์ดเพลงที่คุณชื่นชอบ หรือตัดคะแนนคอร์ดที่คุณไม่ชอบ)
    เอาแบบง่ายๆ  ไปล่ะกันนะคับ
    1 -------------------------------------------------------------------------------------------------5------
    2 -----5/7----7---8-----7/5-----3--5----3-3----5-----7-7-----7-7-10---2/3---2/3-----5/3
  • ทิว 2/6 โรงเรียนท่าบ่อ
    Guest
  • 7 ม.ค.2550,19:42น.
    พี่คอรด์ A+Db จับไงบอกที่ ((ขอคอร์ดกีต้าร์))
  • ไร้นามวะ
    Guest
  • 8 ม.ค.2550,20:35น.
    เยส คอร์ดไม่มี กวย อิอิ! ((ขอคอร์ดกีต้าร์))
  • guitar man
    Guest
  • 9 ม.ค.2550,11:14น.
    สุดยอดเลยครับ พี่แบงค์ชุดนี้เพลง เพราะทุกเพลงเลยครับ สุดยอด!!!!!!!
  • คนน่าตาดี
    Guest
  • 9 ม.ค.2550,16:51น.
    เขียนก้อผิด 55555555555 ((ขอคอร์ดกีต้าร์))
  • ไอ้จุด
    Guest
  • 9 ม.ค.2550,18:59น.
    ผมอยากได้ solo ของ "รอ" ผมแกะเองไม่เป็นช่วยหน่อยละกัน
  • ฟ้า
    Guest
  • 11 ม.ค.2550,10:36น.
    หนูชอบพี่แบ็งค์มากกกกกกกกกกกกกกกกกกกกๆๆๆๆๆๆๆๆๆ
  • ก้อง มือกีต้าร์วง EP.STUDENT
    Guest
  • 11 ม.ค.2550,11:40น.
    ขอคอร์ solo solo solo solo ครับ
    ขอคอร์ solo solo solo solo ครับ
    ขอคอร์ solo solo solo solo ครับ
    ขอคอร์ solo solo solo solo ครับ
    ขอคอร์ solo solo solo solo ครับ
    ขอคอร์ solo solo solo solo ครับ
    ขอคอร์ solo solo solo solo ครับ
    ขอคอร์ solo solo solo solo ครับขอคอร์ solo solo solo solo ครับ
    ขอคอร์ solo solo solo solo ครับ
    ขอคอร์ solo solo solo solo ครับ
    ขอคอร์ solo solo solo solo ครับ
    ขอคอร์ solo solo solo solo ครับ
    ขอคอร์ solo solo solo solo ครับ ((ขอคอร์ดกีต้าร์))
  • โจ๊กm.c
    Guest
  • 11 ม.ค.2550,12:38น.
    ชอบมากครับ
  • สาวกพี่แบงค์
    Guest
  • 11 ม.ค.2550,13:33น.
    คายเปงแฟนพี่แบงค์บ้างอยากคุยคนที่เปงแฟนเพลงพี่แบงค์จังถ้ามีรู้ปาวัดพี่แบงค์ก้อเอาเมล์เราไปนะค่ะ kochakorn_998hotmail.com ชอบพี่แบงค์มากกกกกกกกกกกกกกกกกๆๆๆๆๆๆๆๆๆๆๆๆๆๆๆๆๆๆๆๆๆค่ะ
  • unknow
    Guest
  • 11 ม.ค.2550,14:40น.
    รักแคลชมากที่สุดเลยสุดยอดมากเพลงโดนใจมากเลยค่ะ
  • วง ceeauy
    Guest
  • 11 ม.ค.2550,19:30น.
    คอร์ดเพลงนี้ยังไม่มีคะแนน (อย่าลืม ช่วยกันกดให้คะแนนคอร์ดเพลงที่คุณชื่นชอบ หรือตัดคะแนนคอร์ดที่คุณไม่ชอบ)
    ขอแก้คอร์ดนิดนึง
    รอ
    Artist : Clash
    Album : Crashing

    Intro : D/ A+Dd / Bm/ G A//

    D A+Dd Bm G A D
    ฉันเปนเพียงเส้นทางแห่งรักเก่าที่เธอเดินข้ามไปในเมื่อความหวั่นไหวให้เธอเดินไปกับเขา
    A+Dd Bm G
    เวลาเปลี่ยนฉันเป็นคนเก่า ตัวเธอเปลี่ยนฉันเป็นคนเศร้าในเมื่อเราต้องเลิกรา

    Bm G
    * ขอ...ฉันคงตัดใจไม่ไหว
    Bm G A
    จากนี้...แม้รู้ว่าเธอมีใครยังไง

    D G Bm G A
    ** ผิดเลยใช่ไหม ที่ฉันยังรักเธอ จะให้ตายยังไง เท่าไหร่ฉันก็จะรอ
    D G Bm G/A D
    ถ้าเมื่อไหร่ เขาไม่สนจนเธอต้องเสียใจ เจ็บปวดทนไม่ไหว เธอยังมีฉันที่รอ. ..รอแต่เธอ
    D A+Db Bm G A
    ฉันจะจำสิ่งเดียวที่งดงาม นั้นก็คือภาพเธอ ต่อให้เธอมีเขาข้างกาย
    D A Bm G A
    ในวันนี้ นาทีที่เขาเป็นคนใหม่ ใจเธอลืมฉันก็คงง่าย แต่ฉันเองยังเหมือนเดิม

    (*,**)

    Solo : D/A+Db/Bm/G A//

    (**,**)


  • ARM-ZodiacOFzatanS
    Guest
  • 12 ม.ค.2550,14:14น.
    คอร์ดเพลงนี้ยังไม่มีคะแนน
    (อย่าลืม ช่วยกันกดให้คะแนนคอร์ดเพลงที่คุณชื่นชอบ หรือตัดคะแนนคอร์ดที่คุณไม่ชอบได้เลย)
    intro Line1
    Dadd9 Dadd9
    1/---------------2--------2-|---------------2-----------
    2/----5----------------5----|----5------------5-----5---
    3/-------2----------2-------|--------2-----------2------
    4/-0---------0--------------|-0---------0---------------
    5/---------------------------|---------------------------
    6/---------------------------|---------------------------

    Dadd9(Bass Db) Dadd9(Bass Db)
    1/---------------2--------2-|---------------2-----------
    2/----5----------------5----|----5----------------5-----
    3/--------2---------2-------|--------2---------2--------
    4/---------------------------|---------------------------
    5/-4----------4-------------|-4----------4--------------
    6/---------------------------|---------------------------

    Bm7 Bm7
    1/---------------2--------2-|---------------2--------2--
    2/----3----------------3----|----3----------------3-----
    3/--------2---------2-------|--------2---------2--------
    4/---------------------------|---------------------------
    5/-2----------2-------------|-2----------2--------------
    6/---------------------------|---------------------------

    G6 A
    1/---------------0--------0-|------------------0--------
    2/----3----------------3----|----------2h3--------------
    3/--------0---------0-------|-------2-------2-----------
    4/---------------------------|----0----------------------
    5/---------------------------|-0-------------------------
    6/-3---------3--------------|---------------------------

    intro Line2

    1/-----------------------------------------------------
    2/----------------------------------------------------
    3/----------------------------------------------------
    4/-9/11--11--11/12--11--9--7--7/9-----------
    5/--------------------------------11/12--12-------
    6/---------------------------------------------------

    1/------------------------------------------------------
    2/-------------------------------------------------------
    3/--------------------------------------------------------
    4/-9/11--11--11--12/14----------------14-------
    5/----------------------11/12--12/14-----14/12-
    6/-------------------------------------------------------
  • คิง ด.ม.จ. 27 (ไม่มีวงเล่นคับ)
    Guest
  • 12 ม.ค.2550,16:24น.
    คอร์ดเพลงนี้ยังไม่มีคะแนน (อย่าลืม ช่วยกันกดให้คะแนนคอร์ดเพลงที่คุณชื่นชอบ หรือตัดคะแนนคอร์ดที่คุณไม่ชอบ)

    อินโทร

    2/-7-7-8-7-5----------------------------------10-------------10-------------------------
    3/---------------7-9----7-9-11-11--11-11-----6-7--7/9-----9/7-------------------

    เหมือน 100% ถูกชัว พี่แฮ็กสอนมากับมือ

    สงสัยแอดมา nangfaa_kongchunhotmail.com คับ
  • kailadndz
    Guest
  • 12 ม.ค.2550,16:53น.
    ไม่มีของกลองบ้างหรอ
  • พัดลม
    Guest
  • 12 ม.ค.2550,21:53น.
    ผมเล่นไม่เป็นครับ
    จาก พัดลม
  • โสดครับ
    Guest
  • 12 ม.ค.2550,22:17น.
    เราว่าคอร์ดข้างบนม่ายค่อยจาเหมือนอ่ะ (ขอแก้) มันต้อง D/Dmaj7/Bm/G/A  ท่อน hook กะ ท่อนกลางก้อเหมือนกับข้างบนอ่ะครับ 
  • มือกีต้าร์ โซโล่ วัย 18 วง........
    Guest
  • 13 ม.ค.2550,13:33น.
    ถูกชัว.....เพลงนี้ผมแต่งให้วง แคลช
    สอนพี่ แฮ็ค มากับมือ.5555++
    Intro : D/A/Bm/G/A

    2/-7-7-8-7-5-----------------------------------10----------------10-------------------------
    3/---------------7-9----7-7-9-9>11-11--11-----6>7--7>9--------9<7-------------------
  • เฟิร์ส
    Guest
  • 13 ม.ค.2550,16:24น.
    ไม่อยากจะบอกเลย แคลช เค้า จา มา งาน กาชาด แสดง คอนเสิด ที่ จ. น่าน ครั้งที่ เท่าไหร่ นร้า
    อิอิ วันอังคารนี้แล้ว อ่ะ 16 มกราคม 2550 งานกาชาด จ.น่าน ครัย แฟนตัวจิง ซื้อตั๋วมาดูกัน อิอิ
  • mickeymouse
    Guest
  • 13 ม.ค.2550,19:33น.
    วันที่16 มกรานี้ได้เจอแคลชแล้วอ่ะ แมร่งเพลงโคตรเพราะเลยยิ่งเพลงรอโดนเต็มๆ
  • 14 ม.ค.2550,22:12น.
    ขอแท็ปโซโลคับพวกพี่ๆที่เก่งๆช่วยที ((ขอคอร์ดกีต้าร์))
  • kan
    Guest
  • 15 ม.ค.2550,18:59น.
    ช่วบอกทีคับอ่านแทบยังไงอ่า
    ((ขอคอร์ดกีต้าร์))
  • มอส ด.ม. 70
    Guest
  • 15 ม.ค.2550,20:42น.

    นักมายากล

    TAB เบส ตอนแรก
    6:-7-7--5--7-7-7--5-5--0-5-6-7-7--5-5--7-7-7--0
    5:------------------------------------------------------------5--4

    แล้วก้อเริ่มข้างบนใหม่ วนไปเรื่อยๆ

    ถูกชัว100%

    ปล.ต้องเล่นให้ตงจังหวะนะไม่งั้นมันจะไม่ใช่
  • art
    Guest
  • 15 ม.ค.2550,22:17น.
    เบสต้องดีดตามจังหวะกลองใหญ่ใช่หรือไม่
    เบสต้องดีดตามจังหวะกลองใหญ่ใช่หรือไม่
    เบสต้องดีดตามจังหวะกลองใหญ่ใช่หรือไม่
    เบสต้องดีดตามจังหวะกลองใหญ่ใช่หรือไม่
    เบสต้องดีดตามจังหวะกลองใหญ่ใช่หรือไม่

    ช่วยบอกทีคับ จะขอ ขอบพระมหาคุณอย่างมากๆๆๆๆๆๆๆๆๆๆๆๆๆๆๆๆๆๆๆๆๆๆๆๆๆๆๆๆๆๆๆๆ

  • Ben
    Guest
  • 15 ม.ค.2550,23:22น.
     D/ Asus4/ Bm/ G Asus4/

  • อุจิวะ ซาสึเกะ
    Guest
  • 16 ม.ค.2550,16:02น.
    ขอคอร์ดง่ายๆได้มั้ยคับ
  • name_accessory
    Guest
  • 16 ม.ค.2550,22:47น.
    คอร์ดเพลงนี้ยังไม่มีคะแนน
    (อย่าลืม ช่วยกันกดให้คะแนนคอร์ดเพลงที่คุณชื่นชอบ หรือตัดคะแนนคอร์ดที่คุณไม่ชอบได้เลย)
    พี่ๆคร๊าบ บอกวิธีอ่านคอร์ดแบบนี้อ่ะ ให้หน่อยได้ป่ะครับ ผมอ่านไม่เปน
    intro Line1
    Dadd9 Dadd9
    1/---------------2--------2-|---------------2-----------
    2/----5----------------5----|----5------------5-----5---
    3/-------2----------2-------|--------2-----------2------
    4/-0---------0--------------|-0---------0---------------
    5/---------------------------|---------------------------
    6/---------------------------|---------------------------

    Dadd9(Bass Db) Dadd9(Bass Db)
    1/---------------2--------2-|---------------2-----------
    2/----5----------------5----|----5----------------5-----
    3/--------2---------2-------|--------2---------2--------
    4/---------------------------|---------------------------
    5/-4----------4-------------|-4----------4--------------
    6/---------------------------|---------------------------

    Bm7 Bm7
    1/---------------2--------2-|---------------2--------2--
    2/----3----------------3----|----3----------------3-----
    3/--------2---------2-------|--------2---------2--------
    4/---------------------------|---------------------------
    5/-2----------2-------------|-2----------2--------------
    6/---------------------------|---------------------------

    G6 A
    1/---------------0--------0-|------------------0--------
    2/----3----------------3----|----------2h3--------------
    3/--------0---------0-------|-------2-------2-----------
    4/---------------------------|----0----------------------
    5/---------------------------|-0-------------------------
    6/-3---------3--------------|---------------------------

    intro Line2

    1/-----------------------------------------------------
    2/----------------------------------------------------
    3/----------------------------------------------------
    4/-9/11--11--11/12--11--9--7--7/9-----------
    5/--------------------------------11/12--12-------
    6/---------------------------------------------------

    1/------------------------------------------------------
    2/-------------------------------------------------------
    3/--------------------------------------------------------
    4/-9/11--11--11--12/14----------------14-------
    5/----------------------11/12--12/14-----14/12-
    6/-------------------------------------------------------

    ขอบคุณมากครับ kid_the_phantom_theifhotmail.com
    ((ขอคอร์ดกีต้าร์))
  • เอ๋
    Guest
  • 17 ม.ค.2550,12:27น.
    ปอยน่ารักจัง
  • คนหลังเขา
    Guest
  • 17 ม.ค.2550,14:34น.
    เล่นคีย์ไหนบอกด้วยนะ
  • พี่เอง
    Guest
  • 18 ม.ค.2550,10:55น.
    คือว่าพี่นิ เรื่องดนตรีหรือเรื่องอะไรต่างนิ พี่สุดยอดจริงๆน้อง
  • พี่เอง
    Guest
  • 18 ม.ค.2550,10:58น.
    ถามพี่ได้ เบอร์พี่ 08...................................แน่ sleeb

  • โมบาย
    Guest
  • 18 ม.ค.2550,13:51น.
    ชอบเพลงนี้มากเลยค่ะ โดนสุดๆๆๆๆๆๆๆๆๆๆๆๆๆๆ
  • Baramos
    Guest
  • 19 ม.ค.2550,12:23น.
    ยัง่ได้ฟังเลย เพราะไหมอ่ะบอกหน่อยดิงับ ((ขอคอร์ดกีต้าร์))
  • -*-
    Guest
  • 19 ม.ค.2550,23:04น.
    อยากได้โซโลท่อนที่2คับ
  • วง ResonancE
    Guest
  • 20 ม.ค.2550,01:04น.
    คอร์ดเพลงนี้ยังไม่มีคะแนน (อย่าลืม ช่วยกันกดให้คะแนนคอร์ดเพลงที่คุณชื่นชอบ หรือตัดคะแนนคอร์ดที่คุณไม่ชอบ)

    เพลงนี้เดินเบสธรรมดาก้อได้ครับ
    ตอนเบสขึ้น
    Bm I G I Bm I G / A I D I G I
    4I-3-5-7-I-7-5-3-I-3-5-7-I-7-5-3-5-I----------I-5-4-3
    3I-------------------------------------------I-3-4-5-I

    Bm I G I A I D I A I
    4I-3-5-7I-7-5-3-I-3-5-I--------I-3-4-5-I
    3I-------------------------I-3-4-5I----------

    D I G I Bm I G/A I
    4I---------I-5-4-3-I-3-5-7-I-7-5-3-5-I
    3I-3-4-5-I--------------------------------

    D I G I Bm I G/A I D
    4I---------I-5-4-3-I-3-5-7-I-7-5-3-5-I--------
    3I-3-4-5-I--------------------------------I3-4-5-

    D I A I Bm I G I A I
    4I---------I-3-4-5-I-5-6-7-I-7-5-3-I-3-4-5-I
    3I-3-4-5-I----------------------------------------

    D I A I Bm I G I A I
    4I---------I-3-4-5-I-5-6-7-I-7-5-3-I-3-4-5-I
    3I-3-4-5-I----------------------------------------

    (*,**)

    Solo : D/A+Db/Bm/G A//

    (**,**)


    ถ้าเล่นได้ก็เล่นนะครับ แต่ถ้าเล่นไม่ได้ก็เล่นคอร์ดธรรมดาไปอ่ะครับ
    sanookker_knhotmail.com มีอะไรแอดมาได้ครับ
  • .......
    Guest
  • 20 ม.ค.2550,10:12น.
    ขอแท็ป solo ครับ เทพทั้งหลายช่วยลงให้หน่อยคับ
  • โอม
    Guest
  • 22 ม.ค.2550,12:07น.
    ชอบเพลงนี้มากๆ ยังไงก็ขอเป็นกำลังใจให้พี่นะ
  • aor&amp;pui
    Guest
  • 22 ม.ค.2550,16:42น.
    คอร์ดเพลงนี้ยังไม่มีคะแนน (อย่าลืม ช่วยกันกดให้คะแนนคอร์ดเพลงที่คุณชื่นชอบ หรือตัดคะแนนคอร์ดที่คุณไม่ชอบ)
    ชอบมากค่ะ
    รอ
    Artist : Clash
    Album : Crashing

    Intro : D/ A+Dd / Bm/ G A//

    D A+Dd Bm G A D
    ฉันเปนเพียงเส้นทางแห่งรักเก่าที่เธอเดินข้ามไปในเมื่อความหวั่นไหวให้เธอเดินไปกับเขา
    A+Dd Bm G
    เวลาเปลี่ยนฉันเป็นคนเก่า ตัวเธอเปลี่ยนฉันเป็นคนเศร้าในเมื่อเราต้องเลิกรา

    Bm G
    * ขอ...ฉันคงตัดใจไม่ไหว
    Bm G
    จากนี้...แม้รู้ว่าเธอมีใครยังไง

    D A+Db Bm G A
    ** ผิดเลยใช่ไหม ที่ฉันยังรักเธอ จะให้ตายยังไง เท่าไหร่ฉันก็จะรอ
    D A+Db Bm G A D
    ถ้าเมื่อไหร่ เขาไม่สนจนเธอต้องเสียใจ เจ็บปวดทนไม่ไหว เธอยังมีฉันที่รอ. ..รอแต่เธอ
    D A+Db Bm G A
    ฉันจะจำสิ่งเดียวที่งดงาม นั้นก็คือภาพเธอ ต่อให้เธอมีเขาข้างกาย
    D A+Db Bm G A
    ในวันนี้ นาทีที่เขาเป็นคนใหม่ ใจเธอลืมฉันก็คงง่าย แต่ฉันเองยังเหมือนเดิม

    (*,**)

    Solo : D/A+Db/Bm/G A//

    (**,**)



  • Phantom
    Guest
  • 24 ม.ค.2550,10:11น.
    คอร์ดเพลงนี้ยังไม่มีคะแนน (อย่าลืม ช่วยกันกดให้คะแนนคอร์ดเพลงที่คุณชื่นชอบ หรือตัดคะแนนคอร์ดที่คุณไม่ชอบ)

    สวัสดีครับ^_^ วันนี้เอา Solo intro มาฝากครับ
    ลองแกะดูแล้วน่าจะใช่น่ะครับ ผิดก็อย่าว่ากันนะครับ

    คำเตือน<ก่อนเล่นตั้งเสียงให้เท่ากับในเพลงด้วยนครับเดี๋ยวหาว่าผมแกะไม่ตรงอีก^-^>
    1>-------------------------------------------l----------------------l------------------------l-----------------
    2>-------------------------------------------l----------------------l------------10--------l-------10-------
    3>--11--11--11>12--11--9--7--7>9-l-7--7--9--11--11-l-11--11-------6--7-l-7>9-----9>7-

    ก็ประมาณนี้แหละครับเหมือนสุดละนั่งแกะแล้วฟังเป็นชั่วโมงกว่าจะได้
  • นิค พ.น.21
    Guest
  • 24 ม.ค.2550,20:16น.
    ก็ดีนะเพื่อนผมคับ คิง กะ มอส
  • นักรบอมยิ้ม 01
    Guest
  • 25 ม.ค.2550,17:27น.
    คอร์ด A+Dd และA+Db จับไงเหรอครับ
  • ไม่รุเว้ย
    Guest
  • 25 ม.ค.2550,19:26น.
    ผมไม่เข้าใจว่าคุณลงTabกันภาษาอะไรเนี่ย มันเล่นได้มั้ยเนี่ย
    1/-----------------------------------------------------
    2/----------------------------------------------------
    3/----------------------------------------------------
    4/-9/11--11--11/12--11--9--7--7/9-----------
    5/--------------------------------11/12--12-------
    6/---------------------------------------------------

    1/------------------------------------------------------
    2/-------------------------------------------------------
    3/--------------------------------------------------------
    4/-9/11--11--11--12/14----------------14-------
    5/----------------------11/12--12/14-----14/12-
    6/-------------------------------------------------------



    ผมจะเล่นยังไงเนี่ยตรงเนี้ย
    4/-------------------------------9--7--7/9-----------
    5/--------------------------------11/12--12-------
    6/---------------------------------------------------

    ไม่เข้าใจ ใครรู้บอกผมที ลงให้งงกันไป
  • เพชร
    Guest
  • 28 ม.ค.2550,14:22น.
    เพราะครับ
    ฉันเป็นเพียงเส้นทางแห่งรักเก่า ที่เทอเดินข้ามไป
    ในเมื่อความหวั่นไหวให้เทอ เดินไปกับเขา
    เวลาเปลี่ยนชั้นเป็นคนเก่า
    ตัวเทอเปลี่ยนชั้นเป็นคน..เศร้า
    ในเมื่อเรา..ต้องเลิกรา

    ขอ..ชั้นคงตัดใจไม่ไหว
    จากนี้..แม้รุ้ว่าเทอ..มีใครยังไง

    ** ผิดเลยใช่ไหมที่ชั้นยังรักเทอ
    จะให้ได้ยังไงเท่าไหร่ชั้นก้จะรอ
    เทอเมื่อไหร่..เขาไม่สนให้เทอต้องเสียใจ
    เจ็บปวดใจทนไม่ไหว เทอยังมีชั้นที่รอ..รอแต่เทอ

    ชั้นจะจำสิ่งเดียวที่งดงาม..นั้นก้คือภาพเทอ
    ต่อให้เทอมีเขาข้างกาย
    ในวันนี้ นาทีที่เขาเปนคนใหม่
    ใจเทอลืมชั้นก้คงง่าย
    ตัวชั้นเองยังรุ้เลย

    ขอ...ชั้นคงตัดใจไม่ไหว
    จากนี้ แม้รุ้ว่าเทอ มีใครยังไง

    หากรักจริงรักปลอมทำให้คุณมีอาการเพ้อจนกลายเป็นโรคประจำตัวClashจะไม่ถามว่า
    เขาชื่ออะไรแต่จะขอเช็ดน้ำตาหากความอ้างว้างทำให้คุณรู้สึกหนาวพวกเขาพร้อมจะ
    โอบกอดคุณไว้ด้วยไออุ่นรักหากคุณกลายเป็นเจ้าหญิงนิทราพวกเขาก็รับได้ทุกอย่าง
    เพราะเธอคือนางฟ้าในใจแม้พวกเขาจะไม่รับปากแต่ให้รู้ไว้ว่าเธอจะอยู่กับฉันตลอด

  • คนน่ารัก
    Guest
  • 29 ม.ค.2550,09:49น.
    ชอบเพลงนี้มาก ชอบพี่แฮ๊คมากๆเลย
  • อ๋อ
    Guest
  • 30 ม.ค.2550,17:26น.
    สอนวิธีอ่านTabหน่อยนะคะ อยากรู้มากเลย ขอบคุณมากค่ะ
  • อ๋อ
    Guest
  • 30 ม.ค.2550,17:28น.
    ใครรู้วิธีอ่านแท็บสอนหน่อยนะคะจะเป็นพระคุณอย่างมาก

    pawida_36hotmail.com
  • ตูน ผ.พ.
    Guest
  • 31 ม.ค.2550,21:26น.
    เพราะมากคับฟังแล้วจะร้องไห้อ่านะ เราเองยังซึ้งเป็นบ้าเลย
  • คนหัดเล่น
    Guest
  • 31 ม.ค.2550,22:30น.
    คอร์ดเพลงนี้ยังไม่มีคะแนน (อย่าลืม ช่วยกันกดให้คะแนนคอร์ดเพลงที่คุณชื่นชอบ หรือตัดคะแนนคอร์ดที่คุณไม่ชอบ)

    1/-------------------------------------------------------------------------------------------------------------2/-------------------------------------------------------------------------------------------------------------3/-------------9/12-12-13-12-9-7-9--5/7-9/11-11-11-11-14-----------------14--------------4/--------------------------------------------------------------------------11-12-12/14---14/12------5/-------------------------------------------------------------------------------------------------------------6/-------------------------------------------------------------------------------------------------------------
    ลองดู นะครับ ผม เพิ่ง หัด ถ้า ผิด ยังไงก็อย่าว่ากันนะครับ
  • -*-
    Guest
  • 31 ม.ค.2550,22:32น.
    คอร์ดเพลงนี้ยังไม่มีคะแนน (อย่าลืม ช่วยกันกดให้คะแนนคอร์ดเพลงที่คุณชื่นชอบ หรือตัดคะแนนคอร์ดที่คุณไม่ชอบ)

    3/-------------9/12-12-13-12-9-7-9--5/7-9/11-11-11-11-14-----------------14--------------4/--------------------------------------------------------------------------11-12-12/14---14/12------
    ลองดู นะครับ ผม เพิ่ง หัด ถ้า ผิด ยังไงก็อย่าว่ากันนะครับ



  • คนหัดเล่น
    Guest
  • 31 ม.ค.2550,22:35น.
    3/-------------9/12-12-13-12-9-7-9--5/7-9/11-11-11-11-14-----------------14--------------
    4/---------------------------------------------------------------------------11-12-12/14----14/12----

    ลองดู นะครับ ผม เพิ่ง หัด ถ้า ผิด ยังไงก็อย่าว่ากันนะครับ ไม่รู้ว่าเหมือนป่าว นะครับ

    เอา ใหม่ ครับ ทำไม่ ค่อย เป็น
  • คนหัดเล่น
    Guest
  • 31 ม.ค.2550,22:36น.
    คอร์ดเพลงนี้ยังไม่มีคะแนน (อย่าลืม ช่วยกันกดให้คะแนนคอร์ดเพลงที่คุณชื่นชอบ หรือตัดคะแนนคอร์ดที่คุณไม่ชอบ)

    3/-------------9/12-12-13-12-9-7-9--5/7-9/11-11-11-11-14-----------------14--------------
    4/---------------------------------------------------------------------------11-12-12/14----14/12----

    ลองดู นะครับ ผม เพิ่ง หัด ถ้า ผิด ยังไงก็อย่าว่ากันนะครับ ไม่รู้ว่าเหมือนป่าว นะครับ

    เอา ใหม่ ครับ ทำไม่ ค่อย เป็น
  • เก่งแต่ปาก
    Guest
  • 2 ก.พ.2550,08:55น.
    ไอ 0 มันคืออะไรอ่ะบอกหน่อยดิแล้วก็/ด้วยคับ แบบเพิ่งหัดเล่นนะคับ
  • .
    Guest
  • 3 ก.พ.2550,15:52น.
    โหลดมะได้อะ
    มังเข้าเวบไม่ได้อะคร่า
  • เด็กไม่ เก่งเบส
    Guest
  • 4 ก.พ.2550,17:11น.
    ไอแท็บเนี่ยคือไรอ่ะ ใครรู้ก็ช่วยสอนหน่อยนะคับ แบบวิธีอ่านแท็บอ่ะ
    kitsapon19663hotmail.com
  • ฝ้ายจัง
    Guest
  • 5 ก.พ.2550,15:39น.
    รักวงแคลชทุกคนเลยอ่ะชอบทุกๆเพลงของวงแคลชด้วย
    ตรงกับชีวิต+ความรักของเราจริงๆ
  • lubellus
    Guest
  • 5 ก.พ.2550,19:43น.
    ขอ Solo ด้วยคร๊าบบบบบบบบบบบบบบบบบบบบบบบบบบบ ((ขอคอร์ดกีต้าร์))
  • Jo
    Guest
  • 6 ก.พ.2550,01:29น.
    ขอ Solo ครับ อยากได้มั๊กมากเลย เซียนๆช่วยหน่อยเหอะครับอย่าปล่อยให้อ่อนด้อยไปกว่านี้เลยครับ อยากเป็นท่อน Solo
  • 522
    Guest
  • 7 ก.พ.2550,10:18น.
    1. 9-----9-9--------4-
  • yuriprime
    Guest
  • 7 ก.พ.2550,12:17น.
    คอร์ดเพลงนี้ยังไม่มีคะแนน (อย่าลืม ช่วยกันกดให้คะแนนคอร์ดเพลงที่คุณชื่นชอบ หรือตัดคะแนนคอร์ดที่คุณไม่ชอบ)
    ชอบเพลงนี้มากเลย
    รอ
    Artist : Clash
    Album : Crashing

    Intro : D/ A+Dd / Bm/ G A//

    D A+Dd Bm G A D
    ฉันเปนเพียงเส้นทางแห่งรักเก่าที่เธอเดินข้ามไปในเมื่อความหวั่นไหวให้เธอเดินไปกับเขา
    A+Dd Bm G
    เวลาเปลี่ยนฉันเป็นคนเก่า ตัวเธอเปลี่ยนฉันเป็นคนเศร้าในเมื่อเราต้องเลิกรา

    Bm G
    * ขอ...ฉันคงตัดใจไม่ไหว
    Bm G
    จากนี้...แม้รู้ว่าเธอมีใครยังไง

    D A+Db Bm G A
    ** ผิดเลยใช่ไหม ที่ฉันยังรักเธอ จะให้ตายยังไง เท่าไหร่ฉันก็จะรอ
    D A+Db Bm G A D
    ถ้าเมื่อไหร่ เขาไม่สนจนเธอต้องเสียใจ เจ็บปวดทนไม่ไหว เธอยังมีฉันที่รอ. ..รอแต่เธอ
    D A+Db Bm G A
    ฉันจะจำสิ่งเดียวที่งดงาม นั้นก็คือภาพเธอ ต่อให้เธอมีเขาข้างกาย
    D A+Db Bm G A
    ในวันนี้ นาทีที่เขาเป็นคนใหม่ ใจเธอลืมฉันก็คงง่าย แต่ฉันเองยังเหมือนเดิม

    (*,**)

    Solo : D/A+Db/Bm/G A//

    (**,**)
  • หมาน้อยคราบ
    Guest
  • 7 ก.พ.2550,15:32น.
    เพลงอินมากเลยครับ
  • ติ๊ก จ้า
    Guest
  • 7 ก.พ.2550,17:36น.
    คอร์ดเพลงนี้ยังไม่มีคะแนน (อย่าลืม ช่วยกันกดให้คะแนนคอร์ดเพลงที่คุณชื่นชอบ หรือตัดคะแนนคอร์ดที่คุณไม่ชอบ)

    โนีตเพลง รอ




    รอ..
    ศิลปิน : แคลช (Clash)

    ฉันเป็นเพียงเส้นทางแห่งรักเก่า ที่เทอเดินข้ามไป

    ในเมื่อความหวั่นไหวให้เทอ เดินไปกับเขา

    เวลาเปลี่ยนชั้นเป็นคนเก่า

    ตัวเทอเปลี่ยนชั้นเป็นคน..เศร้า

    ในเมื่อเรา..ต้องเลิกรา

    G B

    ฺขอ..ชั้นคงตัดใจไม่ไหว
    G B
    จากนี้..แม้รุ้ว่าเทอ..มีใครยังไง


    D A+D
    ** ผิดเลยใช่ไหมที่ชั้นยังรักเทอ
    B
    จะให้ได้ยังไงเท่าไหร่ชั้นก้จะรอ
    D A+D
    เทอเมื่อไหร่..เขาไม่สนให้เทอต้องเสียใจ
    B G+A D
    เจ็บปวดใจทนไม่ไหว เทอยังมีชั้นที่รอ..รอแต่เทอ


    D A
    ชั้นจะจำสิ่งเดียวที่งดงาม..นั้นก้คือภาพเทอ
    B D
    ต่อให้เทอมีเขาข้างกาย
    B D
    ในวันนี้ นาทีที่เขาเปนคนใหม่
    D
    ใจเทอลืมชั้นก้คงง่าย
    G
    ตัวชั้นเองยังรุ้เลย


    B G
    ขอ...ชั้นคงตัดใจไม่ไหว
    B G
    จากนี้ แม้รุ้ว่าเทอ มีใครยังไง



    ซ้ำ ( ** , ** ,** )
  • ลูกปลาน้อยเล่นกีตาร์
    Guest
  • 11 ก.พ.2550,09:54น.
    ขอบคุงค๊าบบบบบบบบบบบบบ
  • แมน
    Guest
  • 11 ก.พ.2550,14:39น.
    คอร์ดเพลงนี้ยังไม่มีคะแนน (อย่าลืม ช่วยกันกดให้คะแนนคอร์ดเพลงที่คุณชื่นชอบ หรือตัดคะแนนคอร์ดที่คุณไม่ชอบ)

    1>--2-2-2/3-3-------------------------------5--------------5-----
    2>---------------5--3--3/5--5-5-5/7--7-7----------5--7-------
    3>----------------------------7-------------------7-7-7--------7---
    ลองเล่นดู intro เพลง รอ เหมือนสุดๆ
  • unknow
    Guest
  • 13 ก.พ.2550,18:58น.
    ขอ...............
    2>--5----7------5-------
    ฉันคงตัดใจไม่ไหว
    2>----5-----7----10-----7-----5----3
    ถูกไหมครับ
  • ShadowFinic
    Guest
  • 13 ก.พ.2550,19:00น.
    ขอ...............
    2>--5----7------9-------7-------------
    ฉันคงตัดใจไม่ไหว
    2>----5-----7----10-----7-----5----3

    หรือว่าอย่างนี้
  • Frighten
    Guest
  • 14 ก.พ.2550,09:42น.
    เบสนะม่ายจำเป็นต้องเล่นตามกระเดื่องกลองเสมอไปหรอก ถ้าหัดเล่นก้อเล่นตามกระเดื่องก้อได้ แต่ถ้าเก่งแล้วก้อเล่นเเบบเดินเบส มานจาเพราะขึ้น
  • คนอยากเก่งคับอะนจ้า
    Guest
  • 14 ก.พ.2550,14:51น.
    อยากเล่นเบสเป็นจังเลยคับอะ ช่วยบอกวิธีการอ่าน tabเบสหน่อยนะคับแล้วขอtabเพลงนี้ด้วยคับ
  • Mมือกีต้าร์สำรอง
    Guest
  • 14 ก.พ.2550,17:29น.
    ขอแบบชัวๆชัดเจนคับพี่คับ
    A+Dd จับไงคับพี่
  • เด็กลำปาง
    Guest
  • 15 ก.พ.2550,12:04น.
    คอร์ดเพลงนี้ยังไม่มีคะแนน (อย่าลืม ช่วยกันกดให้คะแนนคอร์ดเพลงที่คุณชื่นชอบ หรือตัดคะแนนคอร์ดที่คุณไม่ชอบ)

    2---5/7---7---7/8---7---5------------------------------------------------------------------------10--
    3---------------------------------7---7/9----5/7----7---7/9----9/11---11---11--11--11-------

    2-----------10---------------------
    3----9/7-------9/7--------------
    คงจาแบ่งท่อนเปนนะครับ ถ้าแบ่งเปนรับรอง 100% ชัว
    ไม่ถูกไม่รู้ว่างัยละครับ

    มีรัยaddมา thailand_coolhotmail.com บอกกันได้ครับ
  • นู๋แอม
    Guest
  • 22 ก.พ.2550,09:10น.
    ชอบมากๆเลยค่ะเพราะเชื่อว่ามันต้องตรงกับชีวิตคู่ของหลายคนแน่ๆแม้ว่าเขาจะไม่รักเราเราก็ยังรอเขาเสมอแม้เทอร์คนนั้นจะอยู่ที่ใดมีใครยังไงเราก็ไม่สน
  • eff.com
    Guest
  • 24 ก.พ.2550,10:32น.
    เอฟ มือกีตาร์ วง EP STUDENT ขอ SOLO ที่น่ะ
    เอฟ มือกีตาร์ วง EP STUDENT ขอ SOLO ที่น่ะ
    เอฟ มือกีตาร์ วง EP STUDENT ขอ SOLO ที่น่ะ
    เอฟ มือกีตาร์ วง EP STUDENT ขอ SOLO ที่น่ะ
    เอฟ มือกีตาร์ วง EP STUDENT ขอ SOLO ที่น่ะ
    เอฟ มือกีตาร์ วง EP STUDENT ขอ SOLO ที่น่ะ
    เอฟ มือกีตาร์ วง EP STUDENT ขอ SOLO ที่น่ะ
    เอฟ มือกีตาร์ วง EP STUDENT ขอ SOLO ที่น่ะ
    เอฟ มือกีตาร์ วง EP STUDENT ขอ SOLO ที่น่ะ ((ขอคอร์ดกีต้าร์))
  • เลิฟ
    Guest
  • 25 ก.พ.2550,12:12น.
    อยากได้ SOLO ท่อนกลางอ่ะครับ ช่วยลงให้หน่อย
  • นัทเด็กเมืองชล
    Guest
  • 25 ก.พ.2550,16:22น.
    คอร์ดเพลงนี้ยังไม่มีคะแนน (อย่าลืม ช่วยกันกดให้คะแนนคอร์ดเพลงที่คุณชื่นชอบ หรือตัดคะแนนคอร์ดที่คุณไม่ชอบ)
    ลองอย่างนี้ดูครับเปลี่ยนนิดหน่อย
    เพลง: รอ /Clash

    Intro: D/F#m/Bm/G/A

    D F#m Bm
    ฉันเป็นเพียงเส้นทางแห่งรักเก่า ที่เทอเดินข้ามไป
    G A D
    ในเมื่อความหวั่นไหวให้เทอ เดินไปกับเขา
    F#m
    เวลาเปลี่ยนชั้นเป็นคนเก่า
    Bm
    ตัวเทอเปลี่ยนชั้นเป็นคน..เศร้า
    G A
    ในเมื่อเรา..ต้องเลิกรา
    Bm D
    * ขอ..ชั้นคงตัดใจไม่ไหว
    Bm G A
    จากนี้..แม้รุ้ว่าเทอ..มีใครยังไง
    D G
    ** ผิดเลยใช่ไหมที่ชั้นยังรักเทอ
    Bm G/A
    จะให้ตายยังไงเท่าไหร่ชั้นก้จะรอ
    D G
    ถ้าเมื่อไหร่..เขาไม่สนจนเทอต้องเสียใจ
    Bm G/A D
    เจ็บปวดใจทนไม่ไหว เทอยังมีชั้นที่รอ..รอแต่เทอ
    D Bm
    ชั้นจะจำสิ่งเดียวที่งดงาม..นั้นก้คือภาพเทอ
    G A
    ต่อให้เทอมีเขาข้างกาย
    D F#m
    ในวันนี้ นาทีที่เขาเปนคนใหม่
    Bm
    ใจเทอลืมชั้นก้คงง่าย
    G A
    แต่ฉันเองยังเหมือนเดิม

    ( ซ้ำ *, **)

    Instru: Bm/A/D/G/A

    (ซ้ำ **,**)
    ลองดูนะครับ ผิดอย่าว่าละเปลี่ยนคอร์ดนิดหน่อยครับ


  • เด็ก หัดใหม่
    Guest
  • 26 ก.พ.2550,13:30น.
    ผม งง ตรงที่มันเป็น /______ __________ เนี่ย ครับ
    ตรง มันลากยาว ให้ทามไง
  • เด็กห้ดเล่น
    Guest
  • 26 ก.พ.2550,17:13น.
    ง่า งง มากๆๆๆๆๆเลย ครับ
    แตก็ได้นะ
  • หนึ่งนครปฐม ซ.โชติรวี
    Guest
  • 27 ก.พ.2550,00:02น.
    คอร์ดเพลงนี้ยังไม่มีคะแนน (อย่าลืม ช่วยกันกดให้คะแนนคอร์ดเพลงที่คุณชื่นชอบ หรือตัดคะแนนคอร์ดที่คุณไม่ชอบ)

    เท่าเกาตอนร้องนะคับนะผมแกะให้เอาแบบง่ายเสียงอาจจะไม่เหมือนมากลองจับจังหวะเอาเองนะ
    d F#m
    1/-------------------0---------0----------------0--/------------------0--------0---------------0--/
    2/-----------3-----------3----------3--------------/---------3------------3---------3-------------/
    3/------2-------2-------------------------2--------/-----2-------2------------------------2-------/
    4/--0-----------------------------------------------/--4---------------------------------------------/
    5/---------------------------------------------------/-------------------------------------------------/
    6/---------------------------------------------------/-------------------------------------------------/
    Bm G/A
    1/-------------------0---------0----------------0--/------------------------------------------0----/
    2/---------3-------------3----------3--------------/----------------3-------------------------------/
    3/-----2-------2--------------------------2--------/-----------0--------0------------0-------------/
    4/---------------------------------------------------/-------------------------------------------------/
    5/--2-----------------------------------------------/-----------------------------0------------------/
    6/---------------------------------------------------/------3-----------------------------------------/
  • หนึ่งนครปฐม แห่งหมู่บ้านโชติรวี
    Guest
  • 27 ก.พ.2550,00:32น.
    การอ่านแท๊ปก็ดูตามนะคับสําหรับคนที่อ่านยังไม่เป็น
    1--------แทนสายที่1 ล่างนะ
    2--------แทนสายที่2--
    3--------แทนสายที่3--
    4--------แทนสายที่4--
    5-------แทนสายที่5--
    6--------แทนสายที่6- บน

    สมุติมีแท๊ปเขียนมาอย่างงี้
    1/--------------------------------------------------/
    2/-----------3-----กดช่องที่3ของสาย2----------/สุดท้าย
    3/------2----------กดช่องที่2ของสาย3-----------/ตามมาอันนี้
    4/--0--------------ดีดสายเปล่าของสาย4---------/ดีดอันนี้ก่อนนะ
    5/---------------------------------------------------/
    6/---------------------------------------------------/
    สัญลักษณ์ต่างๆในการอ่านแท็ป
    1 H การแฮมเมอออน ตัวอย่างกดนิ้วชี้ที่สาย 1 ช่อง 5 ดีดสาย 1 แล้วตบนิ้วนางลงบนช่อง 7 (ไม่ต้องตบนิ้วแรงมากแค่กดนิ้วลงไป) โดยไม่ต้องดีดซ้ำ จะได้เสียงที่ 2 ต่อเนื่องจากเสียงแรก
    2 p ตัวอย่าง กดนิ้วนางี้ที่สาย 1 ช่อง 7 ขณะเดียวกันนิ้วชี้กดที่ช่อง 5 รอไว้ ดีดสาย 1 แล้วปล่อยนิ้วนางที่กดช่อง 7 ขึ้น (อาจจะตวัดปลายนิ้วเล็กน้อยจะให้เสียงที่ชัดเจนขึ้น) โดยไม่ต้องดีดซ้ำ จะได้เสียงที่ 2 ต่อเนื่องจากเสียงแรกเช่นกัน
    3 ^ การดันสาย
    4 / สไลสาย เช่น 3/7 ดีดสาย 3 แล้วสไลด์นิ้วลงไปยังช่อง 7 แล้วดีดอีกครั้ง
    5~สั่นสาย

    ผมรู้แค่นี้ละครับผิดถูกไงเพื่อนๆเมลมาคุยกันได้ครับผมสอนให้ได้เพราะผมก็ไม่เก่งมากแต่อยากให้คนที่ไม่รู้จะได้อ่านแท๊ปได้

  • หนึ่งนครปฐม แห่งหมู่บ้านโชติรวี
    Guest
  • 27 ก.พ.2550,00:35น.
    ลืมไปนี่เมลผมคับkasabainhotmail.com ผมจะออนส่วนมาก3ทุ่มครึ่งถึงเที่ยงคืนนะ
  • เด็กหัดใหม่
    Guest
  • 27 ก.พ.2550,06:40น.
    อยากจะให้บอกด้วยว่า มันเป็น ท่อนไหน นะ ครับ
    จะไดไม่ งงง
  • ShadowFinic
    Guest
  • 27 ก.พ.2550,09:16น.
    นั้นดิคับ A+Db จับไงคับ
  • เธเนเธญเธ I LEN (เนเธญเธฅเธตเธเธเนเธฐ)
    Guest
  • 1 มี.ค.2550,14:32น.
    เธเธตเนเนเธงเธclashเธเนเธฒเธฃเธฑเธเธเธฑเธเธเธธเธเธเธเนเธฅเธข เธญเธขเธฒเธเธเธญเธเธงเนเธฒ love clash เธกเธฒเธเนเธฅเธขเธเนเธฐ
  • บอสแมน
    Guest
  • 1 มี.ค.2550,22:12น.
    เหย แล้วไม่มีใครกะจะเอา TAP SOLO มาลงมั้งหรอวะเนี่ย เฮ้ยย สงสัยบอดร์นี้มีแต่คนหมดปันยากันแล้ววะ
  • aomloveclash
    Guest
  • 4 มี.ค.2550,00:38น.
    ขอบคุณคับ
  • ..
    Guest
  • 4 มี.ค.2550,13:04น.
    TAP SOLO ไปไหนหละไอ่สัส
  • น้ำขลังค์
    Guest
  • 4 มี.ค.2550,13:19น.
    คอร์ด D+aอะไรอ่ะมันกดยังไง
  • .
    Guest
  • 6 มี.ค.2550,13:55น.
    ไอ่ สัส กูถามว่า TAP SOLO หละไอ่เชี่ย
  • LuciFer
    Guest
  • 10 มี.ค.2550,14:09น.
    คอร์ดเพลงนี้ยังไม่มีคะแนน (อย่าลืม ช่วยกันกดให้คะแนนคอร์ดเพลงที่คุณชื่นชอบ หรือตัดคะแนนคอร์ดที่คุณไม่ชอบ)
    สาวก พล Clash  โว๊ย!!!!!!!  ชอบเพลงของClashจัง
  • แบ๊คstp
    Guest
  • 10 มี.ค.2550,22:21น.
    กูไม่รู้จัแคลชว่ะแล้วกูก็เล่นกีตาร์ไม่เป็นคับ
  • .
    Guest
  • 12 มี.ค.2550,12:54น.
    ^^^ กวนTEEN หรอสัส
  • ใหม่ เทคนิกสัต
    Guest
  • 13 มี.ค.2550,13:41น.
    คอร์ดเพลงนี้ยังไม่มีคะแนน (อย่าลืม ช่วยกันกดให้คะแนนคอร์ดเพลงที่คุณชื่นชอบ หรือตัดคะแนนคอร์ดที่คุณไม่ชอบ)

    2/----7-7-7-7-7-7------------10-10--h12----10------7-7-7-7-7------12---14h15p14---
    3/----7-7-7-7-7-7-------------9--9-------------9-------7-7-7-7-7-------------------------------

    2/-------------------------------7s8s7----8-------8s15-15-15-15-15-15--
    3/---14-14-14-14-14-----------------7----7---7s14-14-14-14-14-14---
    4/---14-14-14-14-14------------------------------------------------------------
  • ton
    Guest
  • 22 มี.ค.2550,09:39น.
    คอร์ดเพลงนี้ยังไม่มีคะแนน (อย่าลืม ช่วยกันกดให้คะแนนคอร์ดเพลงที่คุณชื่นชอบ หรือตัดคะแนนคอร์ดที่คุณไม่ชอบ)
    A+Dd  จับไง ขอร้องบอกผมทีก๊าบบบบบบบบ 
  • ฮิโตมิ
    Guest
  • 24 มี.ค.2550,20:05น.
    สมาคมคนรักclash
    วงclashร้องเพลงได้เจ๋งมากคะ
    โดยเฉพาะเพลง รอ เพราะและซึ้งมากเลยคะ
  • ปีศาจ
    Guest
  • 26 มี.ค.2550,18:47น.
    clash กวนตีนวะ
  • ปีศาจ
    Guest
  • 26 มี.ค.2550,18:47น.
    clash กวนตีนวะ
  • 333
    Guest
  • 27 มี.ค.2550,16:03น.
    เพลงรอ เพาะน่ะ เเต่ทำไมไม่ค่อยดังเลย
  • ขอโซโลหน่อยดิ บอกหน่อยครับ
    Guest
  • 2 เม.ย.2550,20:33น.
    ขอโซโลหน่อยดิ บอกหน่อยครับ
    ขอโซโลหน่อยดิ บอกหน่อยครับ
    ขอโซโลหน่อยดิ บอกหน่อยครับ
    ขอโซโลหน่อยดิ บอกหน่อยครับ
    ขอโซโลหน่อยดิ บอกหน่อยครับ
    ขอโซโลหน่อยดิ บอกหน่อยครับ
    ขอโซโลหน่อยดิ บอกหน่อยครับ
  • ใหม่เทคนิคสัต
    Guest
  • 6 เม.ย.2550,09:56น.
    เราลง แทป โซโล ให้แล้ว อยู่ข้างบนไง

    อยากแทปเพลงไหนของ Clash Potato Bodyslam ส่งเมลมาเราจะส่งไปให้

    mai_suriyahotmail.com
  • บอสแมน
    Guest
  • 10 เม.ย.2550,10:53น.
    เอ่อคุณ ใหม่ เทคนิก ครับ ลง TAB งง มากๆ ครับช่วยลงใหม่ให้ line มันอยู่ห่างๆ กันหน่อยนะครับดูไม่รุเรืองเลยครับ
  • โจโจ้ซัง
    Guest
  • 14 เม.ย.2550,17:08น.
    ขอโซโลด้วยครับ
    คือผมฟังแล้วไม่รู้เรื่องเลยครับ ((ขอคอร์ดกีต้าร์))
  • นิรนาม
    Guest
  • 14 เม.ย.2550,19:35น.
    ตอนท่อนโซโล พี่เเฮ็คใช้เทคนิคการ Riff ไปเเกะเอานะ
    เพราะมันต้องเเม่นเรื่องของตัวโน้ต
  • พี่แบงค์
    Guest
  • 19 เม.ย.2550,19:38น.
    ง่าส์ พี่แบงค์งงคร้าบบบบบบบบบบบบบบบบบบบบบ
    (ปล.พี่ แบงค์20นะ) ((ขอคอร์ดกีต้าร์))
  • warne
    Guest
  • 23 เม.ย.2550,15:45น.
    love this sire...to bad the lyrics are not translated to english...beaucse i can understand thai...but don't know how to read and write no more...came to australia when i was very young..so please make english version for me
  • peat
    Guest
  • 2 พ.ค.2550,16:38น.
    เกายังไงอ่ะบอกหน่อยดิเกาสายไรบ้าง
  • Abyss
    Guest
  • 3 พ.ค.2550,16:56น.
    คอร์ดเพลงนี้ยังไม่มีคะแนน (อย่าลืม ช่วยกันกดให้คะแนนคอร์ดเพลงที่คุณชื่นชอบ หรือตัดคะแนนคอร์ดที่คุณไม่ชอบ)
    รอ&#8203;

    Artist : Clash

    Album : Crashing



    Intro : D/ A / Bm/ G A/



    D A Bm G A D

    ฉันเปนเพียงเส้นทางแห่งรักเก่าที่&#8203;เธอเดินข้ามไป&#8203;ใน&#8203;เมื่อ&#8203;ความ&#8203;หวั่นไหว&#8203;ให้&#8203;เธอเดินไป&#8203;กับ&#8203;เขา&#8203;

    A Bm G A

    เวลา&#8203;เปลี่ยนฉัน&#8203;เป็น&#8203;คนเก่า&#8203; &#8203;ตัวเธอเปลี่ยนฉัน&#8203;เป็น&#8203;คนเศร้า&#8203;ใน&#8203;เมื่อเรา&#8203;ต้อง&#8203;เลิกรา&#8203;



    Bm G

    * &#8203;ขอ&#8203;...&#8203;ฉันคงตัดใจ&#8203;ไม่&#8203;ไหว&#8203;

    Bm G A

    &#8203;จาก&#8203;นี้&#8203;...&#8203;แม้รู้ว่า&#8203;เธอมี&#8203;ใคร&#8203;ยัง&#8203;ไง&#8203;



    D G Bm G/A

    ** &#8203;ผิดเลย&#8203;ใช่&#8203;ไหม&#8203; &#8203;ที่ฉัน&#8203;ยัง&#8203;รักเธอ&#8203; &#8203;จะ&#8203;ให้&#8203;ตาย&#8203;ยัง&#8203;ไง&#8203; &#8203;เท่า&#8203;ไหร่ฉันก็&#8203;จะ&#8203;รอ&#8203;

    D G Bm G/A D

    ถ้า&#8203;เมื่อไหร่&#8203; &#8203;เขา&#8203;ไม่&#8203;สนจนเธอ&#8203;ต้อง&#8203;เสียใจ&#8203; &#8203;เจ็บปวดทน&#8203;ไม่&#8203;ไหว&#8203; &#8203;เธอ&#8203;ยัง&#8203;มีฉันที่รอ&#8203;. ..&#8203;รอแต่&#8203;เธอ&#8203;

    D A Bm G A

    ฉัน&#8203;จะ&#8203;จำ&#8203;สิ่งเดียวที่งดงาม&#8203; &#8203;นั้น&#8203;ก็คือภาพเธอ&#8203; &#8203;ต่อ&#8203;ให้&#8203;เธอมี&#8203;เขา&#8203;ข้างกาย&#8203;

    D A Bm G A

    ใน&#8203;วันนี้&#8203; &#8203;นาทีที่&#8203;เขา&#8203;เป็น&#8203;คน&#8203;ใหม่&#8203; &#8203;ใจเธอลืมฉันก็คงง่าย&#8203; &#8203;แต่ฉันเอง&#8203;ยัง&#8203;เหมือนเดิม&#8203;



    (*,**)



    Solo : D/A/Bm/G A/



    (**,**)
  • เหยี่ยว Excalibur ++
    Guest
  • 5 พ.ค.2550,10:54น.
    ขอแท็บ solo กลางเพลงหน่อยคร๊าบ
    Thank you very much
  • SteP
    Guest
  • 7 พ.ค.2550,10:22น.
     ไอแทบเบส   Bm   I    G     I   Bm  I     G / A  I      D    I     G   I                                                            
    4I-3-5-7-I-7-5-3-I-3-5-7-I-7-5-3-5-I----------I-5-4-3
    3I-------------------------------------------I-3-4-5-I
    อย่างเนี่ยมันเล่นยังไง อะ ผมเล่นไม่เป็น อะ ช่วยสอนทีแอดมานะ min_741hotmail.com คร้าบบ สอนผม หน่อย
  • กรุเอง
    Guest
  • 14 พ.ค.2550,14:24น.
    แมร่ง
    นั่งเถียงกันแต่อินโทร

    โซโล่ไม่มีใครแกะ

    ไม่ไหวๆ

    (อย่าให้กุแกะเป็นนะ 55+)


  • GM
    Guest
  • 15 พ.ค.2550,13:04น.
    555+ ((ขอคอร์ดกีต้าร์))
  • GM
    Guest
  • 15 พ.ค.2550,13:07น.
    กูเอง <รักคนเขียน> จุบคนเขียน
  • 15 พ.ค.2550,16:47น.
    อะไรกันวะเนี่ย
  • มั่วม้าง
    Guest
  • 19 พ.ค.2550,15:36น.
    2 l----------------------7-7-8-7-5----------------------------------10------10
    3 l------------------------------------7/9-7-7-9/11-11-11-11---6/7-7---9-7



    ถูก 1000%
  • Muramasa
    Guest
  • 26 พ.ค.2550,00:21น.
    เอาเป็งว่าผมเพิ่งเล่นกีต้าร์เป็งอะงับแล้วเป็นเองด้วยแกะยังไงแล้วอะไรยังไงบอกที ใครว่างก็บอกหน่อย
  • ต้นเด็กดอง5
    Guest
  • 27 พ.ค.2550,08:11น.
    เก่งกานจิง
  • maa
    Guest
  • 14 มิ.ย.2550,17:29น.
    ใครเก่งบอกด้วยครับดู แท็ป ยังไง
    ผมเด็กใหม่ เข้าใจง่ายครับ
    ช่วยอธิบาย ด้วยๆๆ
  • maa
    Guest
  • 14 มิ.ย.2550,17:30น.
    ใครเก่งบอกด้วยครับดู แท็ป ยังไง
    ผมเด็กใหม่ เข้าใจง่ายครับ
    ช่วยอธิบาย ด้วยๆๆ
  • นิรนาม
    Guest
  • 16 มิ.ย.2550,19:44น.
    ขอวิธีเกาคับเอาแบบง่ายๆอ่าแบบลงๆขึ่นๆลงๆยังงี้อ่าบิกงี้ได้ไหมคับ
    บอกคอร์ดด้วยก็ดี
  • เด็กแว้ด
    Guest
  • 17 มิ.ย.2550,07:04น.
    เมื่อคืนดูพันเอ็กเด็กสุดขั้วพี่แบงค์เขาแสดงได้เนียนมาก
  • เกา
    Guest
  • 20 มิ.ย.2550,12:20น.
    เก่า เส้น 4 2 3 4 1 3 2 1 3 2 1 3 2 1 ขี้เกียจโพดแท็บให้ดู แต่ต้องเกาเร็วๆนะ
    แ ล้วจะต้องรอsoloอีกนานป่าวฟะ ((ขอคอร์ดกีต้าร์))
  • 077
    Guest
  • 20 มิ.ย.2550,15:43น.
    ตอนนี้ก็กำลังรออยู่เหมือนกัน
  • [pk]nek_chokun_p.w.{35}
    Guest
  • 21 มิ.ย.2550,14:26น.
    รอๆๆๆๆๆๆๆๆๆๆๆๆ นานๆๆๆๆๆๆๆๆๆๆๆ lovehlew
  • Ben
    Guest
  • 24 มิ.ย.2550,22:15น.
    เพลงใหม่ของ Clash อะปาว? ลองฟังดูดิ

    http://www.4shared.com/file/18197742/7a09f74c/Clash_-_.html
  • เด็กม.2
    Guest
  • 25 มิ.ย.2550,21:18น.
    รักวงclashตั้งแต่เกิด เลย5555555555555555555
    สู้เขานะ
  • เด็ก ม.3หน้าเเลน
    Guest
  • 25 มิ.ย.2550,21:26น.
    พี่เเฮ็คเก่งจังเลย
    ว่างๆมาสอนผมมั่งเด่ะ
    ขอเมลล์พี่แฮ็คด้วยถ้าใครรู้บอกที
  • fong
    Guest
  • 27 มิ.ย.2550,13:06น.
    สวัสดีครับผมวงฟองต้องการรับสมัครมือกีต้าไม่ต้องมีประสบการณ์มากเพียงเเค่ตั้งใจส้อม
    เรามีห้องส้อมฟรี มีที่ให้เล่น และต้องการนักร้องนําที่ยังเป็นนักเรียนเพื่อเตรียมวงส่งประกวด โทร0870337056


  • เด็กบ้านนา
    Guest
  • 1 ก.ค.2550,14:16น.
    มีแท๊บโซโลไหมกัป
  • kim วงค์ klash
    Guest
  • 3 ก.ค.2550,08:51น.
    clashเท่ห์สุดถ้าเป็นไปได้ก็อยากจะเป็นส่วนหนึ่งของclash
  • Guหมั่นไส
    Guest
  • 10 ก.ค.2550,12:11น.
    olo
    oloolooloolo
    olo
    olo
    olo
    oloolo
    oloolooloolo
    olo
    olo
    olo
    oloolo
    oloolooloolo
    olo
    olo
    olo
    oloolo
    oloolooloolo
    olo
    olo
    olo
    oloolo
    oloolooloolo
    olo
    olo
    olo
    oloolo
    oloolooloolo
    olo
    olo
    olo
    oloolo
    oloolooloolo
    olo
    olo
    olo
    oloolo
    oloolooloolo
    olo
    olo
    olo
    oloolo
    oloolooloolo
    olo
    olo
    olo
    oloolo
    oloolooloolo
    olo
    olo
    olo
    oloolo
    oloolooloolo
    olo
    olo
    olo
    oloolo
    oloolooloolo
    olo
    olo
    olo
    oloolo
    oloolooloolo
    olo
    olo
    olo
    oloolo
    oloolooloolo
    olo
    olo
    olo
    oloolo
    oloolooloolo
    olo
    olo
    olo
    oloolo
    oloolooloolo
    olo
    olo
    olo
    oloolo
    oloolooloolo
    olo
    olo
    olo
    oloolo
    oloolooloolo
    olo
    olo
    olo
    oloolo
    oloolooloolo
    olo
    olo
    olo
    oloolo
    oloolooloolo
    olo
    olo
    olo
    oloolo
    oloolooloolo
    olo
    olo
    olo
    oloolo
    oloolooloolo
    olo
    olo
    olo
    oloolo
    oloolooloolo
    olo
    olo
    olo
    oloolo
    oloolooloolo
    olo
    olo
    olo
    oloolo
    oloolooloolo
    olo
    olo
    olo
    oloolo
    oloolooloolo
    olo
    olo
    olo
    oloolo
    oloolooloolo
    olo
    olo
    olo
    oloolo
    oloolooloolo
    olo
    olo
    olo
    oloolo
    oloolooloolo
    olo
    olo
    olo
    oloolo
    oloolooloolo
    olo
    olo
    olo
    oloolo
    oloolooloolo
    olo
    olo
    olo
    oloolo
    oloolooloolo
    olo
    olo
    olo
    oloolo
    oloolooloolo
    olo
    olo
    olo
    oloolo
    oloolooloolo
    olo
    olo
    olo
    oloolo
    oloolooloolo
    olo
    olo
    olo
    oloolo
    oloolooloolo
    olo
    olo
    olo
    oloolo
    oloolooloolo
    olo
    olo
    olo
    oloolo
    oloolooloolo
    olo
    olo
    olo
    oloolo
    oloolooloolo
    olo
    olo
    olo
    oloolo
    oloolooloolo
    olo
    olo
    olo
    oloolo
    oloolooloolo
    olo
    olo
    olo
    oloolo
    oloolooloolo
    olo
    olo
    olo
    oloolo
    oloolooloolo
    olo
    olo
    olo
    oloolo
    oloolooloolo
    olo
    olo
    olo
    oloolo
    oloolooloolo
    olo
    olo
    olo
    oloolo
    oloolooloolo
    olo
    olo
    olo
    oloolo
    oloolooloolo
    olo
    olo
    olo
    oloolo
    oloolooloolo
    olo
    olo
    olo
    oloolo
    oloolooloolo
    olo
    olo
    olo
    oloolo
    oloolooloolo
    olo
    olo
    olo
    oloolo
    oloolooloolo
    olo
    olo
    olo
    oloolo
    oloolooloolo
    olo
    olo
    olo
    oloolo
    oloolooloolo
    olo
    olo
    olo
    oloolo
    oloolooloolo
    olo
    olo
    olo
    oloolo
    oloolooloolo
    olo
    olo
    olo
    oloolo
    oloolooloolo
    olo
    olo
    olo
    oloolo
    oloolooloolo
    olo
    olo
    olo
    oloolo
    oloolooloolo
    olo
    olo
    olo
    oloolo
    oloolooloolo
    olo
    olo
    olo
    oloolo
    oloolooloolo
    olo
    olo
    olo
    oloolo
    oloolooloolo
    olo
    olo
    olo
    oloolo
    oloolooloolo
    olo
    olo
    olo
    oloolo
    oloolooloolo
    olo
    olo
    olo
    oloolo
    oloolooloolo
    olo
    olo
    olo
    oloolo
    oloolooloolo
    olo
    olo
    olo
    oloolo
    oloolooloolo
    olo
    olo
    olo
    oloolo
    oloolooloolo
    olo
    olo
    olo
    oloolo
    oloolooloolo
    olo
    olo
    olo
    oloolo
    oloolooloolo
    olo
    olo
    olo
    oloolo
    oloolooloolo
    olo
    olo
    olo
    oloolo
    oloolooloolo
    olo
    olo
    olo
    oloolo
    oloolooloolo
    olo
    olo
    olo
    oloolo
    oloolooloolo
    olo
    olo
    olo
    oloolo
    oloolooloolo
    olo
    olo
    olo
    oloolo
    oloolooloolo
    olo
    olo
    olo
    oloolo
    oloolooloolo
    olo
    olo
    olo
    oloolo
    oloolooloolo
    olo
    olo
    olo
    oloolo
    oloolooloolo
    olo
    olo
    olo
    oloolo
    oloolooloolo
    olo
    olo
    olo
    oloolo
    oloolooloolo
    olo
    olo
    olo
    oloolo
    oloolooloolo
    olo
    olo
    olo
    oloolo
    oloolooloolo
    olo
    olo
    olo
    oloolo
    oloolooloolo
    olo
    olo
    olo
    oloolo
    oloolooloolo
    olo
    olo
    olo
    oloolo
    oloolooloolo
    olo
    olo
    olo
    oloolo
    oloolooloolo
    olo
    olo
    olo
    oloolo
    oloolooloolo
    olo
    olo
    olo
    oloolo
    oloolooloolo
    olo
    olo
    olo
    oloolo
    oloolooloolo
    olo
    olo
    olo
    oloolo
    oloolooloolo
    olo
    olo
    olo
    oloolo
    oloolooloolo
    olo
    olo
    olo
    oloolo
    oloolooloolo
    olo
    olo
    olo
    oloolo
    oloolooloolo
    olo
    olo
    olo
    oloolo
    oloolooloolo
    olo
    olo
    olo
    oloolo
    oloolooloolo
    olo
    olo
    olo
    oloolo
    oloolooloolo
    olo
    olo
    olo
    oloolo
    oloolooloolo
    olo
    olo
    olo
    oloolo
    oloolooloolo
    olo
    olo
    olo
    oloolo
    oloolooloolo
    olo
    olo
    olo
    oloolo
    oloolooloolo
    olo
    olo
    olo
    oloolo
    oloolooloolo
    olo
    olo
    olo
    oloolo
    oloolooloolo
    olo
    olo
    olo
    oloolo
    oloolooloolo
    olo
    olo
    olo
    oloolo
    oloolooloolo
    olo
    olo
    olo
    oloolo
    oloolooloolo
    olo
    olo
    olo
    oloolo
    oloolooloolo
    olo
    olo
    olo
    oloolo
    oloolooloolo
    olo
    olo
    olo
    oloolo
    oloolooloolo
    olo
    olo
    olo
    oloolo
    oloolooloolo
    olo
    olo
    olo
    oloolo
    oloolooloolo
    olo
    olo
    olo
    oloolo
    oloolooloolo
    olo
    olo
    olo
    oloolo
    oloolooloolo
    olo
    olo
    olo
    oloolo
    oloolooloolo
    olo
    olo
    olo
    oloolo
    oloolooloolo
    olo
    olo
    olo
    oloolo
    oloolooloolo
    olo
    olo
    olo
    oloolo
    oloolooloolo
    olo
    olo
    olo
    oloolo
    oloolooloolo
    olo
    olo
    olo
    oloolo
    oloolooloolo
    olo
    olo
    olo
    oloolo
    oloolooloolo
    olo
    olo
    olo
    oloolo
    oloolooloolo
    olo
    olo
    olo
    oloolo
    oloolooloolo
    olo
    olo
    olo
    oloolo
    oloolooloolo
    olo
    olo
    olo
    oloolo
    oloolooloolo
    olo
    olo
    olo
    oloolo
    oloolooloolo
    olo
    olo
    olo
    oloolo
    oloolooloolo
    olo
    olo
    olo
    oloolo
    oloolooloolo
    olo
    olo
    olo
    oloolo
    oloolooloolo
    olo
    olo
    olo
    oloolo
    oloolooloolo
    olo
    olo
    olo
    oloolo
    oloolooloolo
    olo
    olo
    olo
    oloolo
    oloolooloolo
    olo
    olo
    olo
    oloolo
    oloolooloolo
    olo
    olo
    olo
    oloolo
    oloolooloolo
    olo
    olo
    olo
    oloolo
    oloolooloolo
    olo
    olo
    olo
    olo ((ขอคอร์ดกีต้าร์))
  • มาส มือกีตาร์ วงวันพีท kks
    Guest
  • 10 ก.ค.2550,14:21น.
    อยากได้solo
  • คนทำรายงาน
    Guest
  • 19 ก.ค.2550,19:23น.
    อีควาย ภาษาไทยคุณยังพิมพ์ไม่ถูกเลย ผมจะต้องเอาเพลงนี้ไปทำงานแล้วคุณพิมพ์แบบเนี้ย ต้องมานั่งแก้ใหม่อีก เห็นใจบ้างดิ หัดพิมพ์ให้ถูกหลักบ้าง คนไทยหรือเปล่า
  • อาร์ม
    Guest
  • 2 ส.ค.2550,20:26น.
    สุดยอดมั่กๆฮะ เหอะๆๆๆๆ
  • โอ๋แฟนนุ่น
    Guest
  • 4 ส.ค.2550,12:54น.
    แกะกันได้เยี่ยมมากพวกเด็กน้อย
    ปล. รักนุ่นที่สุด โอ๋
  • nut
    Guest
  • 25 ส.ค.2550,20:38น.
    อยากให้ บี ได้ฟังเพลงนั้จัง
  • genie records
    Guest
  • 14 ก.ย.2550,07:54น.
    เกะได้ดีนะครับ เพลงก้อเพราะดีนะ ผมอยู่ค่าย genie records ครับอยู่กะพี่ตูน - -"
  • ์NooK.....
    Guest
  • 26 ก.ย.2550,17:37น.
    คอร์ดเพลงนี้ยังไม่มีคะแนน (อย่าลืม ช่วยกันกดให้คะแนนคอร์ดเพลงที่คุณชื่นชอบ หรือตัดคะแนนคอร์ดที่คุณไม่ชอบ)


    INTRO
    1)--------------------------------------------------------------------------------------------------------------------------------------------
    2)-----9---9---9>10-----9----7-----5----5>7----5---5----7-----9----9----------9----9-----------12-----------------------------
    3)---------------------------------------------------------------------------------------------------------------------9------10------------
    4)---------------------------------------------------------------------------------------------------------------------------------------------
    น่าจะ๔ุก
  • 123
    Guest
  • 7 ต.ค.2550,14:26น.
    ตกลงคอร์ด A+Db จับยังไงอะคับ
  • คนไร้นาม
    Guest
  • 10 พ.ย.2550,23:05น.
    คอร์ดเพลงนี้ยังไม่มีคะแนน (อย่าลืม ช่วยกันกดให้คะแนนคอร์ดเพลงที่คุณชื่นชอบ หรือตัดคะแนนคอร์ดที่คุณไม่ชอบ)


    เราเกะจากคอร์ด D นะคับลองเล่นดูนะคับ

    1/ ---2--2--2--3--2--2--0--0--2--0----------0--0--2--2--2--2--3/5-------------
    2/ ---3------------------------------------3--3--------------------------------2--3-----
    3/ ---2------------------------------------------------------------------------------------

    ๛&sect; แจ๋วจิงลองเดะ &sect;๛
  • เฟรมคะ
    Guest
  • 3 ธ.ค.2550,16:03น.
    เพลงพี่แบงค์เพราะมากคะ
  • พี่เมย์ครับผมโคตรรักเลยน่ะจ่ะบอกให้อ่าสวยสุดในใจผม
    Guest
  • 9 ธ.ค.2550,19:12น.
    ชอบมากเลยอ่ะสุดยอดเลยล่ะอ่ะเฮีย
  • vilakone
    Guest
  • 14 ธ.ค.2550,14:37น.
    I HED CLASH
  • 2025
    Guest
  • 22 ธ.ค.2550,11:15น.
  • 22 ม.ค.2551,16:12น.
    [size=18]
    -=** โอ้ววววววว......มัulยี่eมมาก......llnJ-ยูu: **=-
    [/size]
  • กร
    Guest
  • 26 ม.ค.2551,20:58น.
    ขอคอร์ดsoloหน่อยครับจากหนองฉางวิทยา
  • ทิว
    Guest
  • 19 มี.ค.2551,17:16น.
    ชอบมากครับ ของพีแคลชฟังสบายๆ โดนใจ
  • 22 ก.ย.2557,01:35น.
    คอร์ดเพลงนี้ยังไม่มีคะแนน (อย่าลืม ช่วยกันกดให้คะแนนคอร์ดเพลงที่คุณชื่นชอบ หรือตัดคะแนนคอร์ดที่คุณไม่ชอบ)
    INTRO:/Dsus2/A6/Bm7/G6/
    
     Dsus2                             A6
             ฉันเป็นเพียงเส้นทางแห่งรักเก่า
    
                    Bm7
    ที่เธอเดินข้ามไป
    
                        G6
    ในเมื่อความหวั่นไหว
    
        A
    ให้เธอเดินไปกับเขา
    
    Dsus2                      A6
            เวลาเปลี่ยนฉันเป็นคนเก่า
    
                            Bm7
    ตัวเธอเปลี่ยนฉันเป็นคนเศร้า
    
            C6     A
    ในเมื่อเราต้องเลิกรา
    
             Bm7           Dsus2
           * ขอ?ฉันคงตัดใจไม่ไหว 
    
         Bm7      G      A
    จากนี้..แม้รู้ว่าเธอ มีใคร ยังไง 
    
            D                           G
           ** ผิดเลยใช่ไหมที่ฉันยังรักเธอ 
    
          Bm                          G A
    จะให้ตายยังไง เท่าไหร่ฉันก็จะรอ
    
             D                           G
    ถ้าเมื่อไหร่ เขาไม่สนจนเธอต้องเสียใจ
    
              Bm                        B  A
    เจ็บปวดทนไม่ไหว เธอยังมีฉันที่รอ...
    
           Dsus2
    รอแต่เธอ 
    
     Dsus2                      A6
              ฉันจะจำสิ่งเดียวที่งดงาม 
    
                  Bm7
    นั่นก็คือภาพเธอ
    
                 G6      A
    ต่อให้เธอมีเขาข้างกาย ในวันนี้
    
    Dsus2                  A6
             นาทีที่เขาเป็นคนใหม่
    
                    Bm7
    ใจเธอลืมฉันก็คงง่าย
    
           G6       A
    แต่ฉันเองยังเหมือนเดิม 
    
         (ซ้ำ *,  **)
    
    SOLO:/Bm/A/D A/G A/
    
          (ซ้ำ **, **)
    
    SOLO:/Dsus2/(4 Times)
1

ขอเชิญร่วมแสดงความคิดเห็นครับ

คลิกที่รูป เพื่อแทรกรูปลงในข้อความ
  • Member :
    username
    password
  • Not a member :
    name
    email
Loading