Loading

เพลง live and learn

บอยด์ โกสิยพงษ์

อัพโหลดคลิปเพลงนี้ที่คุณ ร้อง/เล่น ด้วยตัวคุณเอง ได้แล้ววันนี้
ระหว่างการทดสอบระบบหากพบข้อผิดพลาด กรุณาแจ้งที่นี่
ไม่ละเอียดนะครับ พอกล้อมแกล้มได้ ใครจะแก้ไขให้จะยินดีมาก

Intro : G Bm Em D C G Am D(สองรอบ ช่วงเปียนโน)

G Bm Em
เมื่อวันที่ชีวิต
D
เดินเข้ามาถึงจุดเปลี่ยน
C G
จนบางครั้งคนเรา
Am D
ไม่ทันได้ตระเตรียม หัวใจ

(คอร์ดวน ไปเรื่อยๆ)

Bm Em
เพราะชีวิต คือชีวิต
Bm Em
เมื่อมีเข้ามา ก็มีเลิกไป
C
มีสุขสม มีผิดหวัง
G
หัวเราะ หรือหวั่นไหว
Am D
เกิดขึ้นได้ทุกวัน

G
อยู่ที่เรียนรู้
Bm
อยู่ที่ยอมรับมัน
Em D
ตามความคิด สติเราให้ทัน
C G Am
อยู่กับสิ่งที่มี ไม่ใ่ช่สิ่งที่ฝัน
D
และทำสิ่งนั้นให้ดีที่สุด

(ช่วงหลังที่จะมี transpose key ดันเสียงให้สูงขึ้น ไฟล์MP3ของผมมันเสียน่ะ เสียงยุ่งเหยิงไปหมดน่าเสียดายจัง ใครเป็นแบบผมมั่ง)
ส่งเพลงนี้ให้เพื่อน
วันที่โพสต์ : 21 พ.ย.2546,21:31น.
จำนวนผู้ชม : 125443 คน / แสดงความคิดเห็น : 24 ครั้ง
โพสต์โดย


จาก: แพรวพราว
Guest
เพลงแนะนำ
เพลงฮิต
เลือกแสดงเฉพาะ :

  • แอน
    Guest
  • 29 ก.พ.2547,19:29น.
    เยี่ยมคร๊าบ
  • ผู้เยี่ยมชมอีกคน
    Guest
  • 1 เม.ย.2547,08:12น.
    เนื้อเพลงยังไม่ครบ ต้องมีต่ออีก
  • นัท
    Guest
  • 27 เม.ย.2547,13:08น.
    กรุณาเปลี่ยน Bm ในท่อนแรกเป็น D จะจ๊าบมากครับ
  • 001
    Guest
  • 4 มิ.ย.2547,17:32น.
     
  • ฮั้นนี้
    Guest
  • 1 ก.ค.2547,21:34น.
    เพลงนี้ตอนเปลี่ยน คีย์ เป็น Bb ผมแกะคอรด์ เกือบสมบูรณ์ ถ้าเสร็จจะส่งมาให้นะครับ 
  • อาร์ม
    Guest
  • 27 ก.ย.2547,16:42น.
    Intro : G   Bm   Em  D  C   G  Am  D(สองรอบ ช่วงเปียนโน)

    G Bm Em
    เมื่อวันที่ชีวิต
    D
    เดินเข้ามาถึงจุดเปลี่ยน
    C G
    จนบางครั้งคนเรา
    Am D
    ไม่ทันได้ตระเตรียม หัวใจ
    G Bm Em
    ความสุขความทุกข์
    D
    ไม่มีใครรู้ว่าจะมาเมื่อไหร่
    C G
    จะยอมรับความจริง
    Am D
    ที่เจอได้แค่ไหน ..

    Bm Em
    เพราะชีวิต คือชีวิต
    Bm Em
    เมื่อมีเข้ามา ก็มีเลิกไป
    C
    มีสุขสม มีผิดหวัง
    G
    หัวเราะ หรือหวั่นไหว
    Am D
    เกิดขึ้นได้ทุกวัน

    G
    อยู่ที่เรียนรู้
    Bm
    อยู่ที่ยอมรับมัน
    Em D
    ตามความคิด สติเราให้ทัน
    C G Am
    อยู่กับสิ่งที่มี ไม่ใ่ช่สิ่งที่ฝัน
    D
    และทำสิ่งนั้นให้ดีที่สุด
    ((อัพเดทคอร์ดกีต้าร์))
  • ชายสาม
    Guest
  • 11 ม.ค.2548,01:34น.
    พึงพามาก็เยอะ  วันนี้ขอแสดงฝีมือหน่อย


    Live and learn


    Intro : G /D / Em /Bm /C /G /Em7 /A /D(สองรอบ ช่วงเปียนโน)
    G D Em Bm
    เมื่อวันที่ชีวิต เดินเข้ามาถึงจุดเปลี่ยน
    C G Em7 Am D
    จนบางครั้งคนเรา ไม่ทันได้ตระเตรียมหัวใจ
    G D Em Bm
    ความสุขความทุกข์ ไม่มีใครรู้ว่าจะมาเมื่อไหร่
    C G Em7 A
    จะยอมรับความจริง ที่เจอได้แค่ไหน
    D
    ฮื้อฮือ.....................
    Bm Em Bm Em Em7
    * เพราะชีวิต คือชีวิต เมื่อมีเข้ามา ก็มีเลิกไป
    Am Bm
    มีสุขสมมีผิดหวัง หัวเราะหรือหวั่นไหว
    Am Dadd9
    เกิดขึ้นได้ทุกวัน
    C D G Dadd9
    ** อยู่ที่เรียนรู้ อยู่ที่ยอมรับมัน
    Em Bm
    ตามความคิด สติเราให้ทัน
    C G Em A7
    อยู่กับสิ่งที่มี ไม่ใช่สิ่งที่ฝัน
    D G Dadd9
    และทำสิ่งนั้นให้ดีที่สุด

    G D Em Bm
    สุขก็เตรียมไว้ ว่าความทุกข์ คงตามมาอีกไม่ไกล
    C G Em A7 D
    จะได้รับความจริง เมื่อต้องเจ็บปวดไหว
    ( * , ** )
    Solo:G /Dadd9 /Dm /G /C /D
    Ebmaj7 /Dsus4 /Em /A7 /D
    Bm /Gm7 /Dm /Eb /Dm
    Gm7 /C7 /F7
    Bb F Gm7/Dm7
    อยู่ที่เรียนรู้ ...ยอมรับมัน
    Eb Dm Gm C7
    อยู่กับสิ่งที่มี ไม่ใช่สิ่งที่ฝัน
    F
    และทำสิ่งนั้นให้ดีที่สุด

    Solo:Bb /F /Gm7 /Dm7 /Em
    Bb /Gm7 /C7 /F /Bb
  • พลอย
    Guest
  • 30 ก.ย.2548,18:20น.
    มีใครมีโน้ตตีย์บอร์ดหรือ เปียโนเพลงนี้มั้ยคะ
  • อ๊อฟ
    Guest
  • 4 ต.ค.2549,00:14น.
    ขอ tab ด้วยนะครับ ผมขอเถอะค้าบ 
  • เพชร
    Guest
  • 27 มี.ค.2550,17:29น.
    ขอแท็ปเพลง"อย่ามาทำหน้าตาดี"หน่อยคับ ((ขอคอร์ดกีต้าร์))
  • กัน
    Guest
  • 9 เม.ย.2550,14:08น.
    Live And Learn

    Intro : G /D / Em /Bm /C /G /Em7 /A /D(สองรอบ ช่วงเปียนโน)

    G D Em Bm

    เมื่อวันที่ชีวิต เดินเข้ามาถึงจุดเปลี่ยน

    C G Em7 Am D

    จนบางครั้งคนเรา ไม่ทันได้ตระเตรียมหัวใจ

    G D Em Bm

    ความสุขความทุกข์ ไม่มีใครรู้ว่าจะมาเมื่อไหร่

    C G Em7 A

    จะยอมรับความจริง ที่เจอได้แค่ไหน

    D

    ฮื้อฮือ.....................

    Bm Em Bm Em Em7

    * เพราะชีวิต คือชีวิต เมื่อมีเข้ามา ก็มีเลิกไป

    Am Bm

    มีสุขสมมีผิดหวัง หัวเราะหรือหวั่นไหว

    Am Dadd9

    เกิดขึ้นได้ทุกวัน.
    G

    อยู่ที่เรียนรู้
    Bm
    อยู่ที่ยอมรับมัน

    Em D

    ตามความคิด สติเราให้ทัน

    C G Am

    อยู่กับสิ่งที่มี ไม่ใ่ช่สิ่งที่ฝัน

    D
    และทำสิ่งนั้นให้ดีที่สุด
  • กัน
    Guest
  • 9 เม.ย.2550,14:17น.
    Intro : G   Bm   Em  D  C   G  Am  D(สองรอบ ช่วงเปียนโน)

  • ...
    Guest
  • 3 ต.ค.2550,18:54น.

    Live and learn


    Intro : G /D / Em /Bm /C /G /Em7 /A /D(สองรอบ ช่วงเปียนโน)
    G D Em Bm
    เมื่อวันที่ชีวิต เดินเข้ามาถึงจุดเปลี่ยน
    C G Em7 Am D
    จนบางครั้งคนเรา ไม่ทันได้ตระเตรียมหัวใจ
    G D Em Bm
    ความสุขความทุกข์ ไม่มีใครรู้ว่าจะมาเมื่อไหร่
    C G Em7 A
    จะยอมรับความจริง ที่เจอได้แค่ไหน
    D
    ฮื้อฮือ.....................
    Bm Em Bm Em Em7
    * เพราะชีวิต คือชีวิต เมื่อมีเข้ามา ก็มีเลิกไป
    Am Bm
    มีสุขสมมีผิดหวัง หัวเราะหรือหวั่นไหว
    Am Dadd9
    เกิดขึ้นได้ทุกวัน
    C D G Dadd9
    ** อยู่ที่เรียนรู้ อยู่ที่ยอมรับมัน
    Em Bm
    ตามความคิด สติเราให้ทัน
    C G Em A7
    อยู่กับสิ่งที่มี ไม่ใช่สิ่งที่ฝัน
    D G Dadd9
    และทำสิ่งนั้นให้ดีที่สุด

    G D Em Bm
    สุขก็เตรียมไว้ ว่าความทุกข์ คงตามมาอีกไม่ไกล
    C G Em A7 D
    จะได้รับความจริง เมื่อต้องเจ็บปวดไหว
    ( * , ** )
    Solo:G /Dadd9 /Dm /G /C /D
    Ebmaj7 /Dsus4 /Em /A7 /D
    Bm /Gm7 /Dm /Eb /Dm
    Gm7 /C7 /F7
    Bb F Gm7/Dm7
    อยู่ที่เรียนรู้ ...ยอมรับมัน
    Eb Dm Gm C7
    อยู่กับสิ่งที่มี ไม่ใช่สิ่งที่ฝัน
    F
    และทำสิ่งนั้นให้ดีที่สุด

    Solo:Bb /F /Gm7 /Dm7 /Em
    Bb /Gm7 /C7 /F /Bb
  • โจ้ ปู่สวรรค์
    Guest
  • 11 มี.ค.2551,16:50น.
    1-------------------------------------6-------------6----------------------------------------------------7-5
    2-------------------------8---9--9-----9--8--8----------------7--7--10--7--5----5--5
    3---5--5--0--5---7-9---------------------------------9-------------------------------------7--5--7

    2 รอบ
    1-------------------------- 1-12-9-10
    2---------------7--7--8-- กีต้าร์ตัวที่ 2 เล่นเเบบไล่คอร์ด แล้วsolo 2 ------------12-13-10-8-7
    3---7--8--10------------ 3-

    1--------------------------------------------------------------------------------------------------------
    2----------------7--7--10--8--.s.-5--8--10--8--5--8----8--10--8-----8--7--10--10--12--9-
    3---7--8--10--------------------------------------------------------------7-----------------------------

    ท่อนฮุก
    1--------7-------9-------7-------9---7--7-------------------------------------------------------
    2--10------10-----10------10-------------------10--10--12---10--9--9--12--10--------
    3---------------------------------------------------------------------------------------------------

    1-----------------------------------------------------------------------------------------
    2--7--10--9--10--5---5--5----------------------------5--10--8--5--------------
    3----------------------------------7--5--7--------7--7----------------------7--5----
    แล้วก็วงทั้งเพลง โดยให้กีต้าร์ตัวที่สอง ใส่ลูกเล่นเพิ่ม แล้วเล่นพร้อมกับกลอง บองโก้ด้วยจะยิงเจ๋ง


    ถ้าผิดตรงไหนก็แก้ให้ด้วยน่ะครับ เขียนแท็ปมาให้เพื่อนๆเล่นกัน สนุกๆครับ
  • โจ้ ปู่สวรรค์
    Guest
  • 11 มี.ค.2551,16:53น.
    1-------------------------------------6-------------6----------------------------------------------------7-5
    2-------------------------8---9--9-----9--8--8----------------7--7--10--7--5----5--5 ----------
    3---5--5--0--5---7-9---------------------------------9-------------------------------------7--5--7

    2 รอบ
    1-------------------------------------------------------------------------1-12-9-10 ----------------
    2---------------7--7--8-- กีต้าร์ตัวที่ 2 เล่นเเบบไล่คอร์ด แล้วsolo -2 ------------12-13-10-8-7
    3---7--8--10-----------------------------------------------------------3--------------------------------

    1--------------------------------------------------------------------------------------------------------
    2----------------7--7--10--8--.s.-5--8--10--8--5--8----8--10--8-----8--7--10--10--12--9-
    3---7--8--10--------------------------------------------------------------7-----------------------------

    ท่อนฮุก
    1--------7-------9-------7-------9---7--7-------------------------------------------------------
    2--10------10-----10------10-------------------10--10--12---10--9--9--12--10--------
    3---------------------------------------------------------------------------------------------------

    1-----------------------------------------------------------------------------------------
    2--7--10--9--10--5---5--5----------------------------5--10--8--5--------------
    3----------------------------------7--5--7--------7--7----------------------7--5----
    แล้วก็วงทั้งเพลง โดยให้กีต้าร์ตัวที่สอง ใส่ลูกเล่นเพิ่ม แล้วเล่นพร้อมกับกลอง บองโก้ด้วยจะยิงเจ๋ง

    แก้หน่อยน่ะครับ ผิดนิดเดียว
  • คนอยากเล่น
    Guest
  • 23 มี.ค.2551,12:56น.
    ขอแบบสมบูรหน่อยสิ ((ขอคอร์ดกีต้าร์))
  • 22 ก.ย.2557,01:35น.
    Intro : G   Bm   Em  D  C   G  Am  D(สองรอบ ช่วงเปียนโน)
    
    G                  Bm   Em
         เมื่อวันที่ชีวิต
                   D
    เดินเข้ามาถึงจุดเปลี่ยน
    C                    G
    จนบางครั้งคนเรา
                          Am      D
    ไม่ทันได้ตระเตรียม หัวใจ
    
    (คอร์ดวน ไปเรื่อยๆ)
    
    Bm                 Em
    เพราะชีวิต คือชีวิต
    Bm                  Em
    เมื่อมีเข้ามา ก็มีเลิกไป
    C
    มีสุขสม มีผิดหวัง 
    G
    หัวเราะ หรือหวั่นไหว
    Am             D
    เกิดขึ้นได้ทุกวัน
     
                  G
    อยู่ที่เรียนรู้ 
                  Bm
    อยู่ที่ยอมรับมัน
    Em               D              
    ตามความคิด สติเราให้ทัน
    C            G                Am
    อยู่กับสิ่งที่มี ไม่ใ่ช่สิ่งที่ฝัน
                   D
    และทำสิ่งนั้นให้ดีที่สุด
1

ขอเชิญร่วมแสดงความคิดเห็นครับ

คลิกที่รูป เพื่อแทรกรูปลงในข้อความ
  • Member :
    username
    password
  • Not a member :
    name
    email