คอร์ดเพลง เนื้อเพลง ฟังเพลง

เพลง ยาม

ลาบานูน (Labanoon)

Print

                                  อัลบั้ม : นมสด

Intro: F#m (4times)

F#m Bm
เหม่อมองฟ้า.. แม้มันเป็นคืนที่เหงา
D E F#m
ฝืนใจไม่ยอมให้หาว ฉันรอจะคุยกับเธอ

F#m Bm
* อยู่นอกรั้ว.. หัวใจมั่นคงเสมอ
D E F#m F#
รักเดียวก็มีแต่เธอ เมื่อไรจะยอมเข้าใจ

Bm F#m
** ดึกดื่นค่ำคืนเธอคงฝันหวานไม่รู้ใครเป็นไง
Bm F#m
ดึกดื่นค่ำคืนเธอจะนึกถึงบ้างไหมใครมารอ
D E F#m E
ฉันเพียงต้องการจะขอ ถ้อยคำดีๆสักคำ

A E D F#m
*** ไม่ได้ยินว่ารัก ฉันก็ยังไม่ไป ต้องหลับในตรงนี้ก็ตาม
A E D C#7
ไม่ได้ยินว่ารัก ฉันจะขอเป็นยาม อยู่ประจำจนเช้าทุกวัน

(เฝ้าบ้านให้เธอ)

Instru: F#m (4times)

(ซ้ำ *,**,***,***)

Instru: F#m F#m D D (2times)
F#m (4times) E

(ซ้ำ ***,***)

F#m D E F#m
แม้ทุกๆคืนก็เหงา ฉันยังมีใจให้เธอ
D E
แม้ทุกๆคืนต้องหาว ฉันยังเฝ้ารอเสมอ หวังให้เธอรักยาม

Instru: F#m (5times)



http://www.musicatm.com/thai/คอร์ดเพลง-ยาม-816.html
ส่งเพลงนี้ให้เพื่อน
วันที่โพสต์ : 16 ธ.ค.2546,23:41น.
จำนวนผู้ชม : 357810 คน / แสดงความคิดเห็น : 69 ครั้ง
โพสต์โดย


จาก: Maiza
Guest
เพลงฮิต
เพลงใหม่
เพลงแนะนำ
Fanpage
ข่าวสารจากเว็บครับ
เลือกแสดงเฉพาะ :

  • เสเพล
    Guest
  • 31 ก.ค.2547,17:54น.
    คนแรกโว้ยยย
  • นิด
    Guest
  • 5 ส.ค.2547,21:53น.
    คนที่2ก็ยังดี
  • หมูน้อย
    Guest
  • 15 ส.ค.2547,13:52น.
      ที่หนึ่งไม่ไหว.........ขอที่ 3 ก็ได้ วะ  ฮ่า ๆ ๆ ๆ ๆ ๆ ๆ ๆ 
    ((อัพเดทแหล่งทดลองฟัง))
  • game
    Guest
  • 20 ส.ค.2547,14:58น.
    พวกคุณเก่งกันจังเลยแกะเพลงได้งัยก้อรบกวนส่งทอนSOLOให้ได้มั้ยครับ
  • uku
    Guest
  • 27 ส.ค.2547,10:59น.
    kju
  • ๛อารา๛
    Guest
  • 3 ต.ค.2547,12:35น.
    อารายฟะ
  • หน่อง
    Guest
  • 6 ก.พ.2548,19:23น.
    ขอ solo หน่อยจิ    
  • วง เซลฌซียส
    Guest
  • 11 มี.ค.2548,12:16น.
    คอร์ดเพลงนี้ยังไม่มีคะแนน
    (อย่าลืม ช่วยกันกดให้คะแนนคอร์ดเพลงที่คุณชื่นชอบ หรือตัดคะแนนคอร์ดที่คุณไม่ชอบได้เลย)
    1)-10-10--10--10--9---7--10---9--7--10--10--10---10---9---14----9--9

    2)----9 9 9------------------------------------------------------------------------
    3)---------------------------------------------------------------------------
    4)-----------------------------------------------------------------------------
  • นมเปรี้ยว
    Guest
  • 18 ธ.ค.2548,13:59น.
    เอาไปเลยทอน โซโล่ ตึง ตึงตึงตึง ตึ๋ง ตึ๋งตึง ตึงตึ่งตึ่ง มีแค่นี้แหละสาด
  • พี่แฮ็ค
    Guest
  • 22 ธ.ค.2548,09:00น.
    อยากได้   TAB SOLO   กีต้าร์เพลงนี้
  • นน
    Guest
  • 23 ธ.ค.2548,09:13น.
    นน
  • ~! สาวก LaBanooN !~
    Guest
  • 16 ม.ค.2549,09:48น.
    เพราะมากเลยพี่    (เพราะทุกเพลงนั่นแหละ)
  • [พส] เทพมรณะ แห่ง 3/3
    Guest
  • 21 ม.ค.2549,12:13น.
    สุดยอดเลยขอยกนิ้วให้เลย
  • กหกก
    Guest
  • 23 ม.ค.2549,17:35น.
    อืมเก่งกันจังนะ  
  • นายหมานุ
    Guest
  • 16 ก.พ.2549,13:14น.
    อยากเตะปากบักเขียนคอร์ตของผู้ตอบคนที่ 2
    ((ขอคอร์ดกีต้าร์))
  • ดดดดดดดด
    Guest
  • 1 มี.ค.2549,14:06น.
    ดี
    ((ขอคอร์ดกีต้าร์))
  • น้องแนท
    Guest
  • 1 เม.ย.2549,14:36น.
    จวย   
  • G.Carabao
    Guest
  • 9 เม.ย.2549,03:05น.
    2:-13-13-13-13-12-10-13-12-10-13-13-13-13-15-17-17-12-12-8-8-------
    3:---------------------------------------------------------------------------------------9-9---
    4:--------------------------------------------------------------------------------------------9-9-

    2:-13-13-13-13-12-10-13-12-10-13-13-13-13-15-17-17-12-12-8-8-----------
    3:---------------------------------------------------------------------------------------9-9------
    4:--------------------------------------------------------------------------------------------9-9-
    5:--------------------------------------------------------------------------------------------------7-9-10-9-7-9-7-7-9-10-9-5-
  • บอย
    Guest
  • 12 เม.ย.2549,11:04น.
    มั่วหนิหว่า
  • เสก
    Guest
  • 2 พ.ค.2549,12:28น.
    ส่งคอร์ดเพลงสำนึกของมาลีฮวนน่ามาให้ด้วย  จากเพื่อนๆมาลีฮวนน่า
    ((ขอคอร์ดกีต้าร์))
  • เสก
    Guest
  • 2 พ.ค.2549,12:28น.
    ส่งคอร์ดเพลงสำนึกของมาลีฮวนน่ามาให้ด้วย  จากเพื่อนๆมาลีฮวนน่า  
    ((ขอคอร์ดกีต้าร์))
  • ผมเอง
    Guest
  • 10 ก.ค.2549,11:40น.
        
    ((ขอคอร์ดกีต้าร์))
  • slash
    Guest
  • 28 ส.ค.2549,00:33น.
      good 
  • ....
    Guest
  • 13 ก.ย.2549,19:20น.
    คอร์ดเพลงนี้ยังไม่มีคะแนน
    (อย่าลืม ช่วยกันกดให้คะแนนคอร์ดเพลงที่คุณชื่นชอบ หรือตัดคะแนนคอร์ดที่คุณไม่ชอบได้เลย)
    ยาม 
    Artist : Labanoon ( ลาบานูน )


    อัลบั้ม : นมสด

    Intro: F#m (4times)

    F#m Bm
    เหม่อมองฟ้า.. แม้มันเป็นคืนที่เหงา
    D E F#m
    ฝืนใจไม่ยอมให้หาว ฉันรอจะคุยกับเธอ

    F#m Bm
    * อยู่นอกรั้ว.. หัวใจมั่นคงเสมอ
    D E F#m F#
    รักเดียวก็มีแต่เธอ เมื่อไรจะยอมเข้าใจ

    Bm F#m
    ** ดึกดื่นค่ำคืนเธอคงฝันหวานไม่รู้ใครเป็นไง
    Bm F#m
    ดึกดื่นค่ำคืนเธอจะนึกถึงบ้างไหมใครมารอ
    D E F#m E
    ฉันเพียงต้องการจะขอ ถ้อยคำดีๆสักคำ

    A E D F#m
    *** ไม่ได้ยินว่ารัก ฉันก็ยังไม่ไป ต้องหลับในตรงนี้ก็ตาม
    A E D C#7
    ไม่ได้ยินว่ารัก ฉันจะขอเป็นยาม อยู่ประจำจนเช้าทุกวัน

    (เฝ้าบ้านให้เธอ)

    Instru: F#m (4times)

    (ซ้ำ *,**,***,***)

    Instru: F#m F#m D D (2times)
    F#m (4times) E

    (ซ้ำ ***,***)

    F#m D E F#m
    แม้ทุกๆคืนก็เหงา ฉันยังมีใจให้เธอ
    D E
    แม้ทุกๆคืนต้องหาว ฉันยังเฝ้ารอเสมอ หวังให้เธอรักยาม

    Instru: F#m (5times)

    กุจะก๊อปลงWord โทษที
  • เทคโน TPI สอท 49-11 (เด็กระยอง)
    Guest
  • 2 ต.ค.2549,06:13น.
    คอร์ดเพลงนี้ยังไม่มีคะแนน
    (อย่าลืม ช่วยกันกดให้คะแนนคอร์ดเพลงที่คุณชื่นชอบ หรือตัดคะแนนคอร์ดที่คุณไม่ชอบได้เลย)
    ยาม 
    Artist : Labanoon ( ลาบานูน )


    อัลบั้ม : นมสด

    Intro: F#m (4times)

    2:-13-13-13-13-12-10-13-12-10-13-13-13-13-15-17-17-12-12-8-8-------
    3:---------------------------------------------------------------------------------------9-9---
    4:--------------------------------------------------------------------------------------------9-9-

    F#m Bm
    เหม่อมองฟ้า.. แม้มันเป็นคืนที่เหงา
    D E F#m
    ฝืนใจไม่ยอมให้หาว ฉันรอจะคุยกับเธอ

    F#m Bm
    * อยู่นอกรั้ว.. หัวใจมั่นคงเสมอ
    D E F#m F#
    รักเดียวก็มีแต่เธอ เมื่อไรจะยอมเข้าใจ

    Bm F#m
    ** ดึกดื่นค่ำคืนเธอคงฝันหวานไม่รู้ใครเป็นไง
    Bm F#m
    ดึกดื่นค่ำคืนเธอจะนึกถึงบ้างไหมใครมารอ
    D E F#m E
    ฉันเพียงต้องการจะขอ ถ้อยคำดีๆสักคำ

    A E D F#m
    *** ไม่ได้ยินว่ารัก ฉันก็ยังไม่ไป ต้องหลับในตรงนี้ก็ตาม
    A E D C#7
    ไม่ได้ยินว่ารัก ฉันจะขอเป็นยาม อยู่ประจำจนเช้าทุกวัน

    (เฝ้าบ้านให้เธอ)

    Instru: F#m (4times)

    2:-13-13-13-13-12-10-13-12-10-13-13-13-13-15-17-17-12-12-8-8-----------
    3:---------------------------------------------------------------------------------------9-9------
    4:--------------------------------------------------------------------------------------------9-9-
    5:--------------------------------------------------------------------------------------------------7-9-10-9-7-9-7-7-9-10-9-5-


    (ซ้ำ *,**,***,***)

    Instru: F#m F#m D D (2times)
    F#m (4times) E

    (ซ้ำ ***,***)

    F#m D E F#m
    แม้ทุกๆคืนก็เหงา ฉันยังมีใจให้เธอ
    D E
    แม้ทุกๆคืนต้องหาว ฉันยังเฝ้ารอเสมอ หวังให้เธอรักยาม

    Instru: F#m (5times)
    2:-13-13-13-13-12-10-13-12-10-13-13-13-13-15-17-17-12-12-8-8-----------
    3:---------------------------------------------------------------------------------------9-9------
    4:--------------------------------------------------------------------------------------------9-9-
    5:--------------------------------------------------------------------------------------------------7-9-10-9-7-9-7-7-9-10-9-5-


    2:-13-13-13-13-12-10-13-12-10-13-13-13-13-15-17-17-12-12-8-8-----------
    3:---------------------------------------------------------------------------------------9-9------
    4:--------------------------------------------------------------------------------------------9-9-
    5:--------------------------------------------------------------------------------------------------7-9-10-9-7-9-7-7-9-10-9-5-


  • topza007
    Guest
  • 15 ต.ค.2549,02:18น.
              
  • กอล์ฟ-ไมค์
    Guest
  • 22 ต.ค.2549,02:12น.
    ไม่ขอเปงคนสุดท้ายเพราะผมไม่ดีพอ  
  • แฮม
    Guest
  • 28 ต.ค.2549,21:44น.
    คอร์ดเพลงนี้ยังไม่มีคะแนน
    (อย่าลืม ช่วยกันกดให้คะแนนคอร์ดเพลงที่คุณชื่นชอบ หรือตัดคะแนนคอร์ดที่คุณไม่ชอบได้เลย)
    ยาม 
    Artist : Labanoon ( ลาบานูน )


    อัลบั้ม : นมสด

    Intro: F#m (4times)

    F#m Bm
    เหม่อมองฟ้า.. แม้มันเป็นคืนที่เหงา
    D E F#m
    ฝืนใจไม่ยอมให้หาว ฉันรอจะคุยกับเธอ

    F#m Bm
    * อยู่นอกรั้ว.. หัวใจมั่นคงเสมอ
    D E F#m F#
    รักเดียวก็มีแต่เธอ เมื่อไรจะยอมเข้าใจ

    Bm F#m
    ** ดึกดื่นค่ำคืนเธอคงฝันหวานไม่รู้ใครเป็นไง
    Bm F#m
    ดึกดื่นค่ำคืนเธอจะนึกถึงบ้างไหมใครมารอ
    D E F#m E
    ฉันเพียงต้องการจะขอ ถ้อยคำดีๆสักคำ

    A E D F#m
    *** ไม่ได้ยินว่ารัก ฉันก็ยังไม่ไป ต้องหลับในตรงนี้ก็ตาม
    A E D C#7
    ไม่ได้ยินว่ารัก ฉันจะขอเป็นยาม อยู่ประจำจนเช้าทุกวัน

    (เฝ้าบ้านให้เธอ)

    Instru: F#m (4times)

    (ซ้ำ *,**,***,***)

    Instru: F#m F#m D D (2times)
    F#m (4times) E

    (ซ้ำ ***,***)

    F#m D E F#m
    แม้ทุกๆคืนก็เหงา ฉันยังมีใจให้เธอ
    D E
    แม้ทุกๆคืนต้องหาว ฉันยังเฝ้ารอเสมอ หวังให้เธอรักยาม

    Instru: F#m (5times)
  • สันโดด
    Guest
  • 22 พ.ย.2549,16:24น.
    อยากได้

    ขอTAB BASS เพลงนี้หน่อยจ้า
    ((ขอคอร์ดกีต้าร์))

ขอเชิญร่วมแสดงความคิดเห็นครับ

คลิกที่รูป เพื่อแทรกรูปลงในข้อความ
  • Member :
    username
    password
  • Not a member :
    name
    email
Loading