MusicATM : ฟังเพลง ลืม ขอนแก่น เนื้อเพลง ฟังเพลง คอร์ดเพลง ลืม ฟังเพลงลืม คอร์ดกีต้าร์ คอร์ดเพลง คอร์ด คอร์ดกีตาร์

คอร์ดเพลง เนื้อเพลง ฟังเพลง

เพลง ลืม

ขอนแก่น

Print
Song : ลืม
Artist : ขอนแก่น
Intro : ???

อยากจะลืม...เรื่องราววุ่นวายในชีวิต
เรื่องราวที่ยังวนเวียนทำให้คิด...ถึงวันนั้นยังไม่จางไป

* คงไม่นานถ้าหากเราไม่คิดถึงใครๆ เราก็คงจะลืมมัน
เพียงนิดเดียวถ้าหากเราไม่ต้องพบเจออะไร...ที่มันผูกมันพันกัน

** มันคงไม่ยากเย็นเท่าไหร่ ถ้าวันนี้ไม่มีเค้า
และคงไม่ยากเย็นอะไรถ้าพรุ่งนี้มีเพียงเรา
คนเดียว...ไม่ต้องไปสนใจ มันก็แค่เรื่องเมื่อวาน...

อยากจะลืม...ใครสักคนที่ทำให้เราเหงา
ใครสักคนที่ยังคงทำให้เราเศร้า...แม้วันนี้ยังคงเสียใจ

(*),(**),(**)

PS:
-เพลงไม่น่าจะเก่ามาก แต่เห็นยังไม่มีเลย Update!!! คับ
-ยังงัยก็ ช่วยๆกานแกะ นะคับพี่น้องชาว มิวสิคเอทีเอม
-THx ทุกๆคนคับ
-สามารถฟังเพลงได้ที่ http://365jukebox.com/script/play.cgi?songid=3701
http://www.musicatm.com/thai/คอร์ดเพลง-ลืม-6915.html
ส่งเพลงนี้ให้เพื่อน
วันที่โพสต์ : 7 ต.ค.2549,00:03น. 58.9.193.31
จำนวนผู้ชม : 363162 คน / แสดงความคิดเห็น : 88 ครั้ง
โพสต์โดย


จาก: VitZ
เข้าร่วม: 9 ปีก่อน
เพลง: 0
โพสต์: 21
เพลงฮิต
เพลงใหม่
เพลงทั้งหมด
เพลงแนะนำ
Fanpage
ข่าวสารจากเว็บครับ
เลือกแสดงเฉพาะ :

  • ต่อ
    Guest
  • 7 ต.ค.2549,02:50น.
    ขอบคุนครับ
  • NaNuNee
    Guest
  • 7 ต.ค.2549,05:41น.
    คอร์ดเพลงนี้ยังไม่มีคะแนน
    (อย่าลืม ช่วยกันกดให้คะแนนคอร์ดเพลงที่คุณชื่นชอบ หรือตัดคะแนนคอร์ดที่คุณไม่ชอบได้เลย)
    Song : ลืม
    Artist : ขอนแก่น

    Intro : G/Em/C/D7

    G Em
    อยากจะลืม เรื่องราววุ่นวายชีวิต
    C
    เรื่องราวที่ยังวนเวียนทำให้คิด
    D7
    ถึงวันนั้นยังไม่จางไป

    Em D C
    *คงไม่นาน ถ้าหากเราไม่คิดถึงใคร ๆ
    D
    เราก็คงจะลืมมัน
    Em D C
    เพียงนิดเดียว ถ้าหากเราไม่ต้องพบเจออะไร
    D
    ที่มันผูกมันพันกัน

    G Em
    **มันคงไม่ยากเย็นเท่าไร ถ้าวันนี้ไม่มีเขา

    และคงไม่ยากเย็นอะไร
    C
    ถ้าพรุ่งนี้มีเพียงเรา..คนเดียว
    D
    ไม่ต้องไปสนใจ มันก็แค่เรื่องเมื่อวาน

    SOLO : G/Em/C/D

    G Em
    อยากจะลืม ใครสักคนที่ทำให้เราเหงา
    C
    ใครสักคนที่ยังคงทำให้เราเศร้า
    D
    แม้วันนี้ยังคงเสียใจ

    *,**,**

    /G/
  • หูดำ
    Guest
  • 8 ต.ค.2549,23:24น.
    ขอ intro หน่อยครับ
  • moomi
    Guest
  • 9 ต.ค.2549,17:35น.
    คอร์ดเพลงนี้ยังไม่มีคะแนน
    (อย่าลืม ช่วยกันกดให้คะแนนคอร์ดเพลงที่คุณชื่นชอบ หรือตัดคะแนนคอร์ดที่คุณไม่ชอบได้เลย)
     INTRO  มะรุถูกป่าวแก้ให้หน่อยนะคับ(ชมหน่อยก้ดี พึ่งหัดแกะ แหะๆ)

    G Em
    1-------------------------------------- 1----------------------------------
    2-------------------------------------- 2รอบ 2-------------3h5-3------------- 2รอบ
    3---------2h4------------------------ 3-------2h4---------------------

    C D
    1-------------------------------------------- 1----------------3--------------2-----3--
    2-------3h5-33-----------3h5-33------- 2--------1-3-------------1-3-----3----- 3----4-------------4---4----------------0-- 3----2----------------2-----------------
  • moomi
    Guest
  • 9 ต.ค.2549,17:35น.
    คอร์ดเพลงนี้ยังไม่มีคะแนน
    (อย่าลืม ช่วยกันกดให้คะแนนคอร์ดเพลงที่คุณชื่นชอบ หรือตัดคะแนนคอร์ดที่คุณไม่ชอบได้เลย)
    INTRO  มะรุถูกป่าวแก้ให้หน่อยนะคับ(ชมหน่อยก้ดี พึ่งหัดแกะ แหะๆ)
    G Em
    1-------------------------------------- 1----------------------------------
    2-------------------------------------- 2รอบ 2-------------3h5-3------------- 2รอบ
    3---------2h4------------------------ 3-------2h4---------------------

    C D
    1-------------------------------------------- 1----------------3--------------2-----3--
    2-------3h5-33-----------3h5-33------- 2--------1-3-------------1-3-----3----- 3----4-------------4---4----------------0-- 3----2----------------2-----------------
  • moomi
    Guest
  • 9 ต.ค.2549,17:36น.
    ทำไมบรรทัดสุดท้ายเปนงั้นอะ ไม่รุพยายามดูหน่อยละกัน - -*
  • เออ
    Guest
  • 14 ต.ค.2549,00:46น.
    เพราะดี
  • Poo
    Guest
  • 24 ต.ค.2549,02:42น.
    อยากได้ทั่งเพลงอะ
  • .....
    Guest
  • 1 พ.ย.2549,22:57น.
    มันโซโล่ยังไงใครก้ได้เขียนแทบให้หน่อยเอาให้เนียบ
  • ??
    Guest
  • 4 พ.ย.2549,16:32น.
    ใคร แกะ  เปงก็ช่วยโพสกันหน่อยดิ
  • คนอยากลืม
    Guest
  • 6 พ.ย.2549,19:57น.
    ขอให้ทุกอย่างลืมไปตามเพลงนี้ด้วยเถิด 
  • 10010
    Guest
  • 25 ธ.ค.2549,16:04น.
    เป็นเพลงที่มีเนื้อหาดีเพราะมาก ชอบมากค่ะ  
  • indy
    Guest
  • 25 ธ.ค.2549,23:27น.
    ขอโสโร้น่อยครับ
  • ....ตูไม่บอก
    Guest
  • 2 ม.ค.2550,02:12น.
    หัดแกะเองมั่งสิครับ
  • พลอยเองค่ะ
    Guest
  • 2 ม.ค.2550,10:17น.
    ชอบเพลงนี้มากๆๆเลยอ่ะ โดนสุดๆๆ
  • ป๋อ
    Guest
  • 8 ม.ค.2550,21:24น.
    เพลงนี้โดนมาก
  • แมน
    Guest
  • 10 ม.ค.2550,19:58น.
    ดูไม่รู้เรื่องอะ
  • หหห
    Guest
  • 11 ม.ค.2550,11:39น.
    เพลงนี้เพราะดั่งฟ้าประทานให้
  • หหห
    Guest
  • 11 ม.ค.2550,11:39น.
    เพลงนี้เพราะดั่งฟ้าประทานให้
  • ผู้ฝึกเล่น
    Guest
  • 11 ม.ค.2550,23:16น.
    h เล่นไงอะงับ
    อย่างเช่น 2h4 อะเล่นไง
  • คนกำลังมีความรัก
    Guest
  • 17 ม.ค.2550,13:43น.
    เพลงเพราะดีแต่ศิลปินชื่อลาวมากๆๆๆๆๆๆๆๆๆๆๆๆๆๆๆๆๆๆๆๆๆๆๆๆ
  • เบสงิงิ
    Guest
  • 18 ม.ค.2550,18:10น.
    Web master คับ เล่น DOt-a กันป่าว ถ้าเล่นจัด Team แล้วเมลมาเลย

    มันเป็นการท้า ถ้า NooP เงียบเลย ถ้า Pro จัดมาครับ

    ทีมนะจร้า 3-4-5
  • โอ๊ต
    Guest
  • 19 ม.ค.2550,13:51น.
    พถูกใจมากเลยครับอยากจะรู้ใครเป็นคนแต่ง
  • ต้อย
    Guest
  • 22 ม.ค.2550,22:21น.
    เพราะดี
  • อัศวินม้าไม้
    Guest
  • 23 ม.ค.2550,13:14น.
    คอร์ดเพลงนี้ยังไม่มีคะแนน
    (อย่าลืม ช่วยกันกดให้คะแนนคอร์ดเพลงที่คุณชื่นชอบ หรือตัดคะแนนคอร์ดที่คุณไม่ชอบได้เลย)
         G                                                                  Em
    1-------------------------------------- 1----------------------------------
    2-------------------------------------- 2รอบ 2-------------3h5-3------------- 2รอบ
    3---------2h4------------------------ 3-------2h4---------------------
    4----0----------------------------------- 4----0-------------------------


    C D
    1-------------------------------------------- 1----------------3--------------2-----3--
    2-------3h5-33-----------3h5-33------- 2--------1-3-------------1-3-----3----- 3----4-------------4---4----------------0-- 3----2----------------2-----------------
  • vanz_zz.*.
    Guest
  • 27 ม.ค.2550,15:19น.
    เพราะดี...ชอบมั่กกกกกก....
  • babyniec
    Guest
  • 13 ก.พ.2550,21:13น.
    เพลงมันโดนใจจังเลยง่ะ ขอยืมไปร้องหน่อยนะ เพราะมาก โดนใจคนอยากลืม อยากผมครับ

ขอเชิญร่วมแสดงความคิดเห็นครับ

คลิกที่รูป เพื่อแทรกรูปลงในข้อความ
  • Member :
    username
    password
  • Not a member :
    name
    email
Loading