คอร์ดเพลง กวีบทเก่า - พาราด็อกซ์ (Paradox)

Version 5
แกะโดย etoact
เมื่อ 16 ก.ค.2547,23:15น.
ดู 278 ครั้ง
ไม่รู้ถูกปะนะครับลองดูแล้วกัน

Solo

--------------------------------------------------------------------------------------------------------
--------14/15---17~1715--14/1514----------------------------------------17-----------
----14--------------------------------------------16------------------14--16/18-------18r16--
--------------------------------------------------------------14---16--------------------------------
------------------------------------------------------------------------------------------------------
---------------------------------------------------------------------------------------------------------

------------------------------------------------------------18b---20b---22b-------------
----------------------------------------14/15---/17-------------------------------------
----14---13/1413----------14-------------------------------------------------------
---------------------------14--------------------------------------------------------------
--------------------------------------------------------------------------------------------
------------------------------------------------------------------------

b - bend (ดันสายขึ้น)
- slidedown
/ - slideup
r - bend release(ปล่องสายลงาจากที่ดัน)
((อัพเดทคอร์ดกีต้าร์))
คอร์ดเพลง กวีบทเก่า

ความคิดเห็นเกี่ยวกับคอร์ดนี้

เนื้อเพลง กวีบทเก่า - พาราด็อกซ์ (Paradox)

Intro :


แต่ก่อนทุกครั้งทีไร ได้อ่านได้เห็นในบทกวี

แค่อ่านแล้วทิ้งมันไป ไม่เคยไยดีไม่ซึ้งไม่ชวนฝัน


* ใจความนั้นก็มีแต่เรื่องเก่า

คือความรักที่กลายเป็นความเศร้า


อ่านไปก็งั้นๆ เรื่องราวที่ซ้ำๆ

อ่านไปยังขำ ซ้ำเติมเรื่องเก่า

ต้องมีคนสมหวัง ต้องมีคนชอกช้ำ

ไม่จำ ไม่ซึ้ง ไม่เกี่ยว กับเรา


จนวันที่เขาลืมเรา จู่จู่ความเหงาก็เกิดมี

กลับเกิดลึกซึ้งในบทกวี ได้อ่านอีกทีน้ำตาจะไหล

(ซ้ำ *)


** อ่านไปอย่างช้าๆ เรื่องราวคนช้ำๆ

แต่มันไม่ขำ เพราะเป็นตัวเรา

ไม่เคยจะนึกฝัน จะเจอเองสักครั้ง

กับความผิดหวัง ต้องเจ็บต้องเหงา


เก็บความหมายทุกตอน เก็บอักษรทุกตัว

อยู่ในหัวใจเราเข้าไปข้างใน

ให้มันช้ำไปอีก ให้มันช้ำกว่านี้

ให้มันสาแก่ใจ ให้ช้ำกว่านี้

Instru:

(ซ้ำ **)


อ่านไปอย่างช้าๆ รักมันช้ำๆ

แต่มันไม่ขำ เพราะเป็นตัวเรา

ไม่เคยจะนึกฝัน จะเจอเองสักครั้ง

กับความผิดหวัง ต้องเจ็บต้องเหงา

Instru:


ต้องเจ็บต้องช้ำเป็นอย่างตัวเรา

Cover เพลงกวีบทเก่า


ยังไม่มี Cover เพลงนี้

[ ช่วยกันแบ่งปันคลิปเพลงที่คุณเล่นเอง ]

ฟังเพลง กวีบทเก่า

ฤดูร้อน - พาราด็อกซ์ (Paradox)
เมื่อ 15 ปีที่แล้ว
ค้นพบคอร์ด 41 เวอร์ชั่น
เธอที่รัก(วัยอลวน4 ตั้ม โอ๋รีเทอนร์) - พาราด็อกซ์ (Paradox)
เมื่อ 14 ปีที่แล้ว
ค้นพบคอร์ด 20 เวอร์ชั่น
คนบนฟ้า - พาราด็อกซ์ (Paradox)
เมื่อ 8 ปีที่แล้ว
ค้นพบคอร์ด 4 เวอร์ชั่น
มีแต่เธอ - พาราด็อกซ์ (PARADOX)
เมื่อ 15 ปีที่แล้ว
ค้นพบคอร์ด 1 เวอร์ชั่น
Sexy (เซ็กซี่) - พาราด็อกซ์ (Paradox)
เมื่อ 16 ปีที่แล้ว
ค้นพบคอร์ด 10 เวอร์ชั่น
กอดฉันไว้ (Ost.สามชุก) - พาราด็อกซ์ (Paradox)
เมื่อ 10 ปีที่แล้ว
ค้นพบคอร์ด 1 เวอร์ชั่น
ดาว - พาราด็อกซ์ (PARADOX)
เมื่อ 15 ปีที่แล้ว
ค้นพบคอร์ด 17 เวอร์ชั่น
ใครสักคน - พาราด็อกซ์ (Paradox)
เมื่อ 12 ปีที่แล้ว
ค้นพบคอร์ด 11 เวอร์ชั่น
กรงทอง - พาราด็อกซ์ (Paradox)
เมื่อ 16 ปีที่แล้ว
ค้นพบคอร์ด 10 เวอร์ชั่น
จิ๊บ ร.ด. - พาราด็อกซ์ (Paradox)
เมื่อ 12 ปีที่แล้ว
ค้นพบคอร์ด 3 เวอร์ชั่น
ผงาดง้ำค้ำโลก - พาราด็อกซ์ (Paradox)
เมื่อ 13 ปีที่แล้ว
ค้นพบคอร์ด 13 เวอร์ชั่น
ทาส - พาราด็อกซ์ (Paradox)
เมื่อ 15 ปีที่แล้ว
ค้นพบคอร์ด 16 เวอร์ชั่น
นักมายากล - พาราด็อกซ์ (PARADOX)
เมื่อ 15 ปีที่แล้ว
ค้นพบคอร์ด 14 เวอร์ชั่น
เพ้อ - พาราด็อกซ์ (PARADOX)
เมื่อ 15 ปีที่แล้ว
ค้นพบคอร์ด 3 เวอร์ชั่น
LOVE - พาราด็อกซ์ (Paradox)
เมื่อ 15 ปีที่แล้ว
ค้นพบคอร์ด 9 เวอร์ชั่น
เป็นวัยรุ่นมันเหนื่อย - พาราด็อกซ์ (Paradox)
เมื่อ 14 ปีที่แล้ว
ค้นพบคอร์ด 6 เวอร์ชั่น
อยู่ในใจ - พาราด็อกซ์ (Paradox)
เมื่อ 15 ปีที่แล้ว
ค้นพบคอร์ด 3 เวอร์ชั่น
ขอ - พาราด็อกซ์ (Paradox)
เมื่อ 16 ปีที่แล้ว
ค้นพบคอร์ด 4 เวอร์ชั่น
3มิติ - พาราด็อกซ์ (Paradox)
เมื่อ 15 ปีที่แล้ว
ค้นพบคอร์ด 14 เวอร์ชั่น
ไก่ - พาราด็อกซ์ (PARADOX)
เมื่อ 15 ปีที่แล้ว
ค้นพบคอร์ด 6 เวอร์ชั่น