คอร์ดเพลง ก็มีแค่นั้น - พาราด็อกซ์ (Paradox)

Version 2
แกะโดย ARC
เมื่อ 14 ต.ค.2549,22:03น.
ดู 236 ครั้ง
อะต่อไป Solo เตือนไว้ก่อน มือใหม่อาจจะยากนิดนึง เพราะมันต้องใช้เมคนิค sweep และเร็วพอสมควร 

Solo :
1
2--------------10--10-9-10
3--------------------------------7^(9)---^(9)--7^(9)---7^(9)--7--9--11--9--7--79797979
4
5
6
งง อะดิ อิอิ ใช้หลักดันสายเอา ดันให้ 7 เป็น 9 นะ
Solo ท่อนต่อไปนะ จะเป้น sweep ละ
1-----------------------------11--14--11------------------------------------------14--17--14
2-------------------------12---------------12-----------------------------------15---------------15
3---------------------11-----------------------11---------------------------14------------------------14
4-----------------13-------------------------------13-------------------16-----------------------------16
5-------------14---------------------------------------14-----------17---------------------------------17
6

โทดทีที่ไม่พอ ต่อนะ ๆ

1------------------------17-20-17--------------------------------16-19-16---16-19-16
2--------------------18-------------18-------------------------17------------17-------------17 เล่นรัว
3----------------17--------------------17-------------------16
4------------19--------------------------19
5--------20----------------------------------20
6
คอร์ดเพลง ก็มีแค่นั้น

ความคิดเห็นเกี่ยวกับคอร์ดนี้

เนื้อเพลง ก็มีแค่นั้น - พาราด็อกซ์ (Paradox)



ก็มีแค่นั้น
คำร้อง ทำนอง อิทธิพงศ์ กฤดากร ณ อยุธยา
เรียบเรียง Paradox

ก็มีแค่นั้น ที่ฉันทำได้ แค่แต่งเพลงรัก ออกจากหัวใจ ที่ฉันมีให้เธอ
ก็มีแค่นั้น ที่ฉันทำให้ ได้แต่งเพลงรัก ออกจากหัวใจ ที่ฉันมีให้เธอ

* คิดถึงเธออยู่ คิดทุกวันห่าง ที่จะต้องเจอกันอีกนานไหม
ฉันไม่เคยหยุด คิดทุกวันอยาก ที่จะรักจนวันสุดท้าย

** ก็อยากจะร้อง ออกจากหัวใจ ของฉัน ต่อจากนี้ไป
ปาฏิหาริย์ อย่าจางหายไป ให้ฉันได้ใกล้เธอ
เพ้อไม่ยอมตื่น ให้ฟื้นก็คงยาก ขอแค่โอกาส..... เพียงแค่นั้น

ก็คงแค่ฝัน ที่ฉันทำได้ แค่แต่งเพลงรัก ออกจากหัวใจ ที่ฉันมีให้เธอ

( * ** solo * ** )

Cover เพลงก็มีแค่นั้น


ยังไม่มี Cover เพลงนี้

[ ช่วยกันแบ่งปันคลิปเพลงที่คุณเล่นเอง ]

ฟังเพลง ก็มีแค่นั้น

ฤดูร้อน - พาราด็อกซ์ (Paradox)
เมื่อ 15 ปีที่แล้ว
ค้นพบคอร์ด 41 เวอร์ชั่น
เธอที่รัก(วัยอลวน4 ตั้ม โอ๋รีเทอนร์) - พาราด็อกซ์ (Paradox)
เมื่อ 14 ปีที่แล้ว
ค้นพบคอร์ด 20 เวอร์ชั่น
คนบนฟ้า - พาราด็อกซ์ (Paradox)
เมื่อ 7 ปีที่แล้ว
ค้นพบคอร์ด 4 เวอร์ชั่น
มีแต่เธอ - พาราด็อกซ์ (PARADOX)
เมื่อ 15 ปีที่แล้ว
ค้นพบคอร์ด 1 เวอร์ชั่น
Sexy (เซ็กซี่) - พาราด็อกซ์ (Paradox)
เมื่อ 16 ปีที่แล้ว
ค้นพบคอร์ด 10 เวอร์ชั่น
กอดฉันไว้ (Ost.สามชุก) - พาราด็อกซ์ (Paradox)
เมื่อ 10 ปีที่แล้ว
ค้นพบคอร์ด 1 เวอร์ชั่น
ดาว - พาราด็อกซ์ (PARADOX)
เมื่อ 15 ปีที่แล้ว
ค้นพบคอร์ด 17 เวอร์ชั่น
ใครสักคน - พาราด็อกซ์ (Paradox)
เมื่อ 12 ปีที่แล้ว
ค้นพบคอร์ด 11 เวอร์ชั่น
กรงทอง - พาราด็อกซ์ (Paradox)
เมื่อ 15 ปีที่แล้ว
ค้นพบคอร์ด 10 เวอร์ชั่น
จิ๊บ ร.ด. - พาราด็อกซ์ (Paradox)
เมื่อ 12 ปีที่แล้ว
ค้นพบคอร์ด 3 เวอร์ชั่น
ผงาดง้ำค้ำโลก - พาราด็อกซ์ (Paradox)
เมื่อ 12 ปีที่แล้ว
ค้นพบคอร์ด 13 เวอร์ชั่น
ทาส - พาราด็อกซ์ (Paradox)
เมื่อ 15 ปีที่แล้ว
ค้นพบคอร์ด 16 เวอร์ชั่น
นักมายากล - พาราด็อกซ์ (PARADOX)
เมื่อ 15 ปีที่แล้ว
ค้นพบคอร์ด 14 เวอร์ชั่น
เพ้อ - พาราด็อกซ์ (PARADOX)
เมื่อ 15 ปีที่แล้ว
ค้นพบคอร์ด 3 เวอร์ชั่น
LOVE - พาราด็อกซ์ (Paradox)
เมื่อ 15 ปีที่แล้ว
ค้นพบคอร์ด 9 เวอร์ชั่น
เป็นวัยรุ่นมันเหนื่อย - พาราด็อกซ์ (Paradox)
เมื่อ 13 ปีที่แล้ว
ค้นพบคอร์ด 6 เวอร์ชั่น
อยู่ในใจ - พาราด็อกซ์ (Paradox)
เมื่อ 15 ปีที่แล้ว
ค้นพบคอร์ด 3 เวอร์ชั่น
ขอ - พาราด็อกซ์ (Paradox)
เมื่อ 15 ปีที่แล้ว
ค้นพบคอร์ด 4 เวอร์ชั่น
3มิติ - พาราด็อกซ์ (Paradox)
เมื่อ 15 ปีที่แล้ว
ค้นพบคอร์ด 14 เวอร์ชั่น
ไก่ - พาราด็อกซ์ (PARADOX)
เมื่อ 15 ปีที่แล้ว
ค้นพบคอร์ด 6 เวอร์ชั่น