คอร์ดเพลง ขอบคุณที่รักกัน(Acoustic) - โปเตโต้ (Potato)

Version 13
แกะโดย เพิ่งหัดเล่นนะ
เมื่อ 5 มี.ค.2550,16:49น.
ดู 1825 ครั้ง

ชัวว์ 100% แต่ผมเพิ่งเขียนแทบลงเปนครั้งแรก ถ้าผิดก้อขอโทดด้วยนะคับ
แต่เล่นแล้วเหมือนแน่นอน ในเนื้อขี้เกียจลงให้อ่าคับ^ ^มันเยอะลายตา

intro
1---------------------------------0-----------------------4----------------------------------4s7--7--7--2--------4---------4---------4------4---4s2s5--4------------------4-----------4---------------------
3--------4---------4------4--------------4s2-------------------------4-----------4---------------------
4------------------------------------------------------------------------------------------------------------
5-----------------------0-----------------------------------------------------------------0-------------0--
6-0--0-----0--0-----------------------------------------------0---0-------0--0-------------------------

emaj7นั่นแหละคับ
1---7--7--------------------0---------------0-----------0-------------0-----------------------------0-----
2--------------------------------0--------4----------4-----------------0-----------------------------4-----
3----------2---------1h2------------4---------4-------------1-------1-----------------------------4-----
4--------------2h4-----------------------------------------------------1-----------------------------4-----
5--------------0---------------------------------------------------------2-----------------------------2----
6--------------------------------------2----------2-----------------------------------------------------------

คือ ตรงสุดท้ายคล้ายคอร์ด B แต่ไม่ต้อง ทาบ ใช้กดแค่สาย5คับ

คอร์ดเพลง ขอบคุณที่รักกัน(Acoustic)

ความคิดเห็นเกี่ยวกับคอร์ดนี้

เวอร์ชั่นทั้งหมดของคอร์ดเพลงนี้

คอร์ดเพลง ขอบคุณที่รักกัน(Acoustic)

3 | 0
โดย xcrazy drum perfect วง [ Zin ]
เมื่อ 13 ปีที่แล้ว

คอร์ดเพลง ขอบคุณที่รักกัน(Acoustic)

0 | 0
โดย เทพ กีต้า
เมื่อ 12 ปีที่แล้ว

คอร์ดเพลง ขอบคุณที่รักกัน(Acoustic)

0 | 0
โดย เพิ่งหัดเล่นนะ
เมื่อ 12 ปีที่แล้ว

คอร์ดเพลง ขอบคุณที่รักกัน(Acoustic)

0 | 0
โดย รับรองตรง
เมื่อ 12 ปีที่แล้ว

คอร์ดเพลง ขอบคุณที่รักกัน(Acoustic)

0 | 0
โดย ทอมมี่
เมื่อ 12 ปีที่แล้ว

คอร์ดเพลง ขอบคุณที่รักกัน(Acoustic)

0 | 0
โดย นัท
เมื่อ 12 ปีที่แล้ว

คอร์ดเพลง ขอบคุณที่รักกัน(Acoustic)

0 | 0
โดย นายวันเฉลิม สุหา
เมื่อ 13 ปีที่แล้ว

คอร์ดเพลง ขอบคุณที่รักกัน(Acoustic)

0 | 0
โดย นิรนาม
เมื่อ 13 ปีที่แล้ว

คอร์ดเพลง ขอบคุณที่รักกัน(Acoustic)

0 | 0
โดย คน
เมื่อ 13 ปีที่แล้ว

คอร์ดเพลง ขอบคุณที่รักกัน(Acoustic)

0 | 0
โดย คน
เมื่อ 13 ปีที่แล้ว

คอร์ดเพลง ขอบคุณที่รักกัน(Acoustic)

0 | 0
โดย คน
เมื่อ 13 ปีที่แล้ว

คอร์ดเพลง ขอบคุณที่รักกัน(Acoustic)

0 | 0
โดย เมืองเหนือ
เมื่อ 13 ปีที่แล้ว

คอร์ดเพลง ขอบคุณที่รักกัน(Acoustic)

0 | 0
โดย bankba
เมื่อ 13 ปีที่แล้ว

คอร์ดเพลง ขอบคุณที่รักกัน(Acoustic)

0 | 0
โดย sawada
เมื่อ 13 ปีที่แล้ว

เนื้อเพลง ขอบคุณที่รักกัน(Acoustic) - โปเตโต้ (Potato)

songขอบคุณที่รักกัน(coustic)
rtistโปเตโต้(Potato)

intro ?

ฉันเคยเกือบ พลาดสิ่งที่ดีที่สุด ในชีวิต หากในวันที่ฉันล้มอยู่ ไม่มีหนึ่งใจของเธอ

ฝันคงจบ หลายสิ่งที่ดีคงหมด ทางได้เจอ หนึ่งกำลังใจที่ยิ่งใหญ่ ไม่ลืมได้เลย

*ขอบคุณที่รักกัน ขอบคุณทุกครั้งที่คอยกอดฉัน ในวันที่ปัญหา ถาโถมเข้ามาใส่

จะตอบแทนความรัก ที่ฉันได้จากเธออย่างไร ก็รู้ดีว่าไม่พอ แต่ขอทำให้ดีที่สุด

สักวันหนึ่ง ฉันอาจต้องล้มลงอีก ใครจะรู้ แต่ถ้าเธอไปด้วยกันอยู่ ก็ไม่หวั่นกลัวเท่าไร

เรื่องบางอย่าง ฉันอาจได้เคยพูดบอก เธอออกไป แต่อีกมุมนึงของหัวใจ ไม่เคยพูดเลย

ซ้ำ/*/


ขอบคุณในความรัก ที่หาไม่ได้จากที่ไหน จะรักเธอให้มากพอ และขอทำให้ดีที่สุด


(เพลงนี้ วินร้องด้วยอ่ะ)





Cover เพลงขอบคุณที่รักกัน(Acoustic)


ยังไม่มี Cover เพลงนี้

[ ช่วยกันแบ่งปันคลิปเพลงที่คุณเล่นเอง ]

ฟังเพลง ขอบคุณที่รักกัน(Acoustic)

เธอยัง - โปเตโต้ (Potato)
เมื่อ 8 ปีที่แล้ว
ค้นพบคอร์ด 7 เวอร์ชั่น
แพ้ใจ - โปเตโต้ (POTATO)
เมื่อ 8 ปีที่แล้ว
ค้นพบคอร์ด 4 เวอร์ชั่น
แชร์ (Share) - โปเตโต้ (Potato)
เมื่อ 10 ปีที่แล้ว
ค้นพบคอร์ด 1 เวอร์ชั่น
ไม่ให้เธอไป - โปเตโต้ (Potato)
เมื่อ 16 ปีที่แล้ว
ค้นพบคอร์ด 28 เวอร์ชั่น
ปากดี - โปเตโต้ (Potato)
เมื่อ 14 ปีที่แล้ว
ค้นพบคอร์ด 41 เวอร์ชั่น
รักเธอไปทุกวัน - โปเตโต้ (Potato)
เมื่อ 11 ปีที่แล้ว
ค้นพบคอร์ด 13 เวอร์ชั่น
ยิ่งใกล้ยิ่งเจ็บ - โปเตโต้ (Potato)
เมื่อ 14 ปีที่แล้ว
ค้นพบคอร์ด 6 เวอร์ชั่น
ขอบคุณที่รักกัน - โปเตโต้ (Potato)
เมื่อ 13 ปีที่แล้ว
ค้นพบคอร์ด 26 เวอร์ชั่น
ไม่รู้จะอธิบายยังไง - โปเตโต้ (POtATo)
เมื่อ 8 ปีที่แล้ว
ค้นพบคอร์ด 1 เวอร์ชั่น
อารมณ์สีเทา - โปเตโต้(Potato)
เมื่อ 11 ปีที่แล้ว
ค้นพบคอร์ด 10 เวอร์ชั่น
หวังดีเสมอ - โปเตโต้ (Potato)
เมื่อ 14 ปีที่แล้ว
ค้นพบคอร์ด 10 เวอร์ชั่น
ภาษากาย - โปเตโต้ (Potato)
เมื่อ 14 ปีที่แล้ว
ค้นพบคอร์ด 17 เวอร์ชั่น
กล้าพอไหม - โปเตโต้ (Potato)
เมื่อ 18 ปีที่แล้ว
ค้นพบคอร์ด 20 เวอร์ชั่น
เพียงพอ - โปเตโต้ (Potato)
เมื่อ 12 ปีที่แล้ว
ค้นพบคอร์ด 34 เวอร์ชั่น
ขอบคุณที่รักกัน(Acoustic) - โปเตโต้ (Potato)
เมื่อ 13 ปีที่แล้ว
ค้นพบคอร์ด 17 เวอร์ชั่น
นี่แหละความเสียใจ - โปเตโต้ (Potato)
เมื่อ 12 ปีที่แล้ว
ค้นพบคอร์ด 39 เวอร์ชั่น
ชีวิตที่ขาดเธอ - โปเตโต้(potato)
เมื่อ 12 ปีที่แล้ว
ค้นพบคอร์ด 10 เวอร์ชั่น
ฉันคิดถึงเธอ - โปเตโต้ (POTATO)
เมื่อ 9 ปีที่แล้ว
ค้นพบคอร์ด 1 เวอร์ชั่น
คำตอบของหัวใจ - โปเตโต้ (Potato)
เมื่อ 12 ปีที่แล้ว
ค้นพบคอร์ด 21 เวอร์ชั่น
ทนพิษบาดแผลไม่ไหว - โปเตโต้ (Potato)
เมื่อ 10 ปีที่แล้ว
ค้นพบคอร์ด 6 เวอร์ชั่น