คอร์ดเพลง ขอบคุณที่รักกัน - โปเตโต้ (Potato)

Version 16
แกะโดย xcrazy drum perfect วง [ Zin ]
เมื่อ 27 มี.ค.2549,21:22น.
ดู 663 ครั้ง
มาต่อให้ครับ ต่อให้กับเพื่อนๆ คนที่ 153 ครับ ( แก้ไขให้ครับ ) ลองๆดูนะ

อันนี้ผมจะแยกทีละตัวนะครับ

Intro ครับ ตัวนี้เป็นตัวเกาคอร์ดนะครับ
1>------------------------------------------------0-------------------------------------
2>------------------------------------------------0-------------------------------------
3>------------8----------------8-------------8-----8---8--sl--6--------------------- (เล่น2รอบ)
4>------------9----------------9---------9--------------9--sl--7---------------------
5>------7-----------------7----------7-------------------------------------------------
6>---0----------------0-----------------------------------------------------------------

1>---------------------------0---------------0-------0-------------
2>---0--------------------------0----------------------------------
3>-------2-p-1--1--h--2--------------2--------2----------------1>ดีดคอร์ดต่อเลยคับE---Emaj7
4>-------------------------------------------------------------------
5>-------------------------------------------------------------------
6>------------------------------------2-------2--------------------
ตัวนี้เป็นตัว Slide Solo หรือ Read แหละคับ s = ดีดแบบ Slide

จบ Intro รอบแรกตรงนี้ครับ>> | <<
1>-------------------------------------------|------------------------------------------------0-----0--
2>----------------------------------------9-|-----11s13--13-13---13--13----------------------
3>--------------------------8s9---8-------|---------------------------------------------8------8---
4>-------------------------------------------|------------------------------------------9------9------
5>-------------------------------------------|---------------------------------------------------------
6>-------------------------------------------|---------------------------------------------------------
ผมนับห้องไม่เป็นครับ ฟังเอานะแล้วดีดตามเลย


คอร์ดเพลง ขอบคุณที่รักกัน

ความคิดเห็นเกี่ยวกับคอร์ดนี้

เวอร์ชั่นทั้งหมดของคอร์ดเพลงนี้

คอร์ดเพลง ขอบคุณที่รักกัน

0 | 0
โดย เบนซ์
เมื่อ 5 ปีที่แล้ว

คอร์ดเพลง ขอบคุณที่รักกัน

0 | 1
โดย ชัวแน้นนอน
เมื่อ 12 ปีที่แล้ว

คอร์ดเพลง ขอบคุณที่รักกัน

0 | 0
โดย Hutch
เมื่อ 12 ปีที่แล้ว

คอร์ดเพลง ขอบคุณที่รักกัน

0 | 0
โดย นนา
เมื่อ 12 ปีที่แล้ว

คอร์ดเพลง ขอบคุณที่รักกัน

0 | 0
โดย เพาะดี
เมื่อ 13 ปีที่แล้ว

คอร์ดเพลง ขอบคุณที่รักกัน

0 | 0
โดย ริช
เมื่อ 13 ปีที่แล้ว

คอร์ดเพลง ขอบคุณที่รักกัน

0 | 0
โดย เท่ห์
เมื่อ 13 ปีที่แล้ว

คอร์ดเพลง ขอบคุณที่รักกัน

0 | 0
โดย เต้
เมื่อ 13 ปีที่แล้ว

คอร์ดเพลง ขอบคุณที่รักกัน

0 | 0
โดย xcrazy drum perfect วง [ Zin ]
เมื่อ 13 ปีที่แล้ว

คอร์ดเพลง ขอบคุณที่รักกัน

0 | 0
โดย เกมส์
เมื่อ 13 ปีที่แล้ว

คอร์ดเพลง ขอบคุณที่รักกัน

0 | 0
โดย เกมส์
เมื่อ 13 ปีที่แล้ว

คอร์ดเพลง ขอบคุณที่รักกัน

0 | 0
โดย peter pan
เมื่อ 13 ปีที่แล้ว

คอร์ดเพลง ขอบคุณที่รักกัน

0 | 0
โดย peter pan
เมื่อ 13 ปีที่แล้ว

คอร์ดเพลง ขอบคุณที่รักกัน

0 | 0
โดย peter pan
เมื่อ 13 ปีที่แล้ว

คอร์ดเพลง ขอบคุณที่รักกัน

0 | 0
โดย popo
เมื่อ 13 ปีที่แล้ว

คอร์ดเพลง ขอบคุณที่รักกัน

0 | 0
โดย haute
เมื่อ 13 ปีที่แล้ว

คอร์ดเพลง ขอบคุณที่รักกัน

0 | 0
โดย AgNeau
เมื่อ 13 ปีที่แล้ว

คอร์ดเพลง ขอบคุณที่รักกัน

0 | 0
โดย AgNeau
เมื่อ 13 ปีที่แล้ว

คอร์ดเพลง ขอบคุณที่รักกัน

0 | 0
โดย ณัฐ
เมื่อ 13 ปีที่แล้ว

คอร์ดเพลง ขอบคุณที่รักกัน

0 | 0
โดย The....Fix
เมื่อ 13 ปีที่แล้ว

คอร์ดเพลง ขอบคุณที่รักกัน

0 | 0
โดย ???
เมื่อ 13 ปีที่แล้ว

คอร์ดเพลง ขอบคุณที่รักกัน

0 | 0
โดย NicsZa
เมื่อ 13 ปีที่แล้ว

คอร์ดเพลง ขอบคุณที่รักกัน

0 | 0
โดย NicsZa
เมื่อ 13 ปีที่แล้ว

คอร์ดเพลง ขอบคุณที่รักกัน

0 | 0
โดย เป็นๆๆ
เมื่อ 13 ปีที่แล้ว

เนื้อเพลง ขอบคุณที่รักกัน - โปเตโต้ (Potato)

ฉันเคยเกือบ พลาดสิ่งที่ดีที่สุด ในชีวิต
หากในวันที่ฉันล้มอยู่ ไม่มีหนึ่งใจของเธอ
ฝันคงจบ หลายสิ่งที่ดีคงหมด ทางได้เจอ
หนึ่งกำลังใจที่ยิ่งใหญ่ ไม่ลืมได้เลย..

* ขอบคุณที่รักกัน ขอบคุณทุกครั้งที่คอยกอดฉัน ในวันที่ปัญหาถาโถมเข้ามาใส่
จะตอบแทนความรัก ที่ฉันได้จากเธออย่างไร ก็รู้ดีว่าไม่พอ แต่ขอทำให้ดีที่สุด

สักวันหนึ่ง ฉันอาจต้องล้มลงอีก ใครจะรู้
แต่ถ้าเธอไปด้วยกันอยู่ ก็ไม่หวั่นกลัวเท่าไร
เรื่องบางอย่าง ฉันอาจได้เคยพูดบอก เธอออกไป
แต่อีกมุมนึงของหัวใจ ไม่เคยพูดเลย.. (ซ้ำ*) Solo (ซ้ำ*)

ขอบคุณในความรัก ที่หาไม่ได้จากที่ไหน จะรักเธอให้มากพอ และขอทำให้ดีที่สุด

Cover เพลงขอบคุณที่รักกัน


ยังไม่มี Cover เพลงนี้

[ ช่วยกันแบ่งปันคลิปเพลงที่คุณเล่นเอง ]

ฟังเพลง ขอบคุณที่รักกัน

เธอยัง - โปเตโต้ (Potato)
เมื่อ 8 ปีที่แล้ว
ค้นพบคอร์ด 7 เวอร์ชั่น
แพ้ใจ - โปเตโต้ (POTATO)
เมื่อ 8 ปีที่แล้ว
ค้นพบคอร์ด 4 เวอร์ชั่น
แชร์ (Share) - โปเตโต้ (Potato)
เมื่อ 10 ปีที่แล้ว
ค้นพบคอร์ด 1 เวอร์ชั่น
ไม่ให้เธอไป - โปเตโต้ (Potato)
เมื่อ 15 ปีที่แล้ว
ค้นพบคอร์ด 28 เวอร์ชั่น
ปากดี - โปเตโต้ (Potato)
เมื่อ 14 ปีที่แล้ว
ค้นพบคอร์ด 41 เวอร์ชั่น
รักเธอไปทุกวัน - โปเตโต้ (Potato)
เมื่อ 11 ปีที่แล้ว
ค้นพบคอร์ด 13 เวอร์ชั่น
ยิ่งใกล้ยิ่งเจ็บ - โปเตโต้ (Potato)
เมื่อ 14 ปีที่แล้ว
ค้นพบคอร์ด 6 เวอร์ชั่น
ขอบคุณที่รักกัน - โปเตโต้ (Potato)
เมื่อ 13 ปีที่แล้ว
ค้นพบคอร์ด 26 เวอร์ชั่น
ไม่รู้จะอธิบายยังไง - โปเตโต้ (POtATo)
เมื่อ 8 ปีที่แล้ว
ค้นพบคอร์ด 1 เวอร์ชั่น
อารมณ์สีเทา - โปเตโต้(Potato)
เมื่อ 11 ปีที่แล้ว
ค้นพบคอร์ด 10 เวอร์ชั่น
หวังดีเสมอ - โปเตโต้ (Potato)
เมื่อ 14 ปีที่แล้ว
ค้นพบคอร์ด 10 เวอร์ชั่น
ภาษากาย - โปเตโต้ (Potato)
เมื่อ 13 ปีที่แล้ว
ค้นพบคอร์ด 17 เวอร์ชั่น
กล้าพอไหม - โปเตโต้ (Potato)
เมื่อ 2021 ปีที่แล้ว
ค้นพบคอร์ด 20 เวอร์ชั่น
เพียงพอ - โปเตโต้ (Potato)
เมื่อ 12 ปีที่แล้ว
ค้นพบคอร์ด 34 เวอร์ชั่น
ขอบคุณที่รักกัน(Acoustic) - โปเตโต้ (Potato)
เมื่อ 13 ปีที่แล้ว
ค้นพบคอร์ด 17 เวอร์ชั่น
นี่แหละความเสียใจ - โปเตโต้ (Potato)
เมื่อ 12 ปีที่แล้ว
ค้นพบคอร์ด 39 เวอร์ชั่น
ชีวิตที่ขาดเธอ - โปเตโต้(potato)
เมื่อ 12 ปีที่แล้ว
ค้นพบคอร์ด 10 เวอร์ชั่น
ฉันคิดถึงเธอ - โปเตโต้ (POTATO)
เมื่อ 9 ปีที่แล้ว
ค้นพบคอร์ด 1 เวอร์ชั่น
คำตอบของหัวใจ - โปเตโต้ (Potato)
เมื่อ 12 ปีที่แล้ว
ค้นพบคอร์ด 21 เวอร์ชั่น
ทนพิษบาดแผลไม่ไหว - โปเตโต้ (Potato)
เมื่อ 10 ปีที่แล้ว
ค้นพบคอร์ด 6 เวอร์ชั่น