คอร์ดเพลง ขอเป็นตัวเลือก - กะลา

Version 6
แกะโดย เทคโน TPI สอท49-11(ระยอง)
เมื่อ 2 ต.ค.2549,06:09น.
ดู 2297 ครั้ง

ขอเป็นตัวเลือก
ศิลปิน: กะลา
Intro : G/D/C/D/

Intro
1-------------------------------------------------7---------------------------------
2-----------------------------------------8--10---8----------8--8--10----------
3--------4--------------------------------------------7--7s9-----------9--7---
4--5--7---5---------5--5---7s9--7-------------------------------------------
5------------5--5s7------7-----------------------------------------------------

1---------------------------------------------------------------------------------------------------------
2--12--15--15--12--15--15s17-------------------------------------------------------------------
3---------------------------------------14s16--14--12--14--14s16---14s16--14--12--12--
4---------------------------------------------------------------------------12---------------------------

1-----------------------------------------------------
2------------15----------14--15-------------------
3--12s14-----12s14----------------------------


G Em C D
เผื่อใจไว้ก่อนอย่าเพิ่งทุ่มเทให้ฉันเลย
G Em C D
ฉันอาจตกเป็นจำเลย เรื่องทำเธอเสียใจ
Bm Em Am D G
หากไม่เป็นดั่งเธอหวังที่ตั้งใจวาดเอาไว้
Em C D G Em C D
สุดท้ายคงต้องกลายเป็นผู้ร้ายทำลายเธอ
G Em C D
อยากทำเพื่อเธออยากเป็นดั่งคนที่เธอหวัง
G Em C D
แต่ว่าใจฉันยังหวั่น หวั่นทำเธอคอยเก้อ
Bm Em Am D C
กับใจเธอที่ให้ฉันมันมากมายซะล้นเอ่อ
D G
ยิ่งมากก็ยิ่งกลัว
// Am D Bm
// เผื่อใจเอาไว้ก่อนเธอ ยังไม่สาย
// Em Am D G
// ให้โอกาสใจเธอลองมองใครนอกจากฉัน
// Em Am D Bm Em
// ขอยอมเป็นหนึ่งในตัวเลือกของคนที่เธอฝัน
// A D
// เพียงแค่นั้นก่อน อย่าทุ่มความสำคัญ
//// G Em C D
//// ทนรอสักหน่อยปล่อยให้เวลาบอกหัวใจ
//// G Em C D
//// ฉันคนนี้ที่เป็นไป ใช่ไหมที่ต้องการ
//// Bm Em Am D C
//// ให้ความรักเป็นหนังสือ เพียงแค่เธอค่อยๆอ่าน
//// D G
//// ค้นหาใจของเธอ
//
Bm C D
เจ็บคงมีที่เพียงฉันและเธอ
Bm Em D/C Am D
แต่เพื่อแลกกับคำตอบ ตีกรอบให้เธอได้เจอคนที่ดี
Instru : G/Em/C/D ( 2 times )
Bm/Bm/Am/D/G/Em/C/D/G
// , ////
1-------------------------------------------------7---------------------------------
2-----------------------------------------8--10---8----------8--8--10----------
3--------4--------------------------------------------7--7s9-----------9--7---
4--5--7---5---------5--5---7s9--7-------------------------------------------
5------------5--5s7------7-----------------------------------------------------

1---------------------------------------------------------------------------------------------------------
2--12--15--15--12--15--15s17-------------------------------------------------------------------
3---------------------------------------14s16--14--12--14--14s16---14s16--14--12--12--
4---------------------------------------------------------------------------12---------------------------

1-----------------------------------------------------
2------------15----------14--15-------------------
3--12s14-----12s14----------------------------

Bm Em Am D C
ให้ความรักเป็นหนังสือ เพียงแค่เธอค่อยๆ อ่าน
D G
ค้นหาใจของเธอ


ลองเล่นให้สาวฟังดิ่คับ รับรองว่าต้องบอกว่า โครตรักเอ็งเลย
คอร์ดเพลง ขอเป็นตัวเลือก

ความคิดเห็นเกี่ยวกับคอร์ดนี้

เนื้อเพลง ขอเป็นตัวเลือก - กะลา

Intro : เผื่อใจไว้ก่อนอย่าเพิ่งทุ่มเทให้ฉันเลย ฉันอาจตกเป็นจำเลย เรื่องทำเธอเสียใจ หากไม่เป็นดั่งเธอหวังที่ตั้งใจวาดเอาไว้ สุดท้ายคงต้องกลายเป็นผู้ร้ายทำลายเธอ อยากทำเพื่อเธออยากเป็นดั่งคนที่เธอหวัง แต่ว่าใจฉันยังหวั่น หวั่นทำเธอคอยเก้อ กับใจเธอที่ให้ฉันมันมากมายซะล้นเอ่อ ยิ่งมากก็ยิ่งกลัว// เผื่อใจเอาไว้ก่อนเธอ ยังไม่สาย// ให้โอกาสใจเธอลองมองใครนอกจากฉัน// ขอยอมเป็นหนึ่งในตัวเลือกของคนที่เธอฝัน// เพียงแค่นั้นก่อน อย่าทุ่มความสำคัญ//// // ทนรอสักหน่อยปล่อยให้เวลาบอกหัวใจ//// // ฉันคนนี้ที่เป็นไป ใช่ไหมที่ต้องการ//// // ให้ความรักเป็นหนังสือ เพียงแค่เธอค่อยๆอ่าน//// // ค้นหาใจของเธอ// เจ็บคงมีที่เพียงฉันและเธอ แต่เพื่อแลกกับคำตอบ ตีกรอบให้เธอได้เจอคนที่ดีInstru : ( 2 times ) ,/// ให้ความรักเป็นหนังสือ เพียงแค่เธอค่อยๆ อ่าน ค้นหาใจของเธอ

Cover เพลงขอเป็นตัวเลือก


ยังไม่มี Cover เพลงนี้

[ ช่วยกันแบ่งปันคลิปเพลงที่คุณเล่นเอง ]

ฟังเพลง ขอเป็นตัวเลือก

ไม่เห็นฝุ่น - กะลา (KALA)
เมื่อ 9 ปีที่แล้ว
ค้นพบคอร์ด 3 เวอร์ชั่น
เธอเป็นแฟนฉันแล้ว - กะลา
เมื่อ 15 ปีที่แล้ว
ค้นพบคอร์ด 16 เวอร์ชั่น
ใจเรายังตรงกันอยู่ไหม - กะลา (Kala)
เมื่อ 7 ปีที่แล้ว
ค้นพบคอร์ด 4 เวอร์ชั่น
ขอเป็นตัวเลือก - กะลา
เมื่อ 15 ปีที่แล้ว
ค้นพบคอร์ด 9 เวอร์ชั่น
บอกสักคำ - กะลา
เมื่อ 16 ปีที่แล้ว
ค้นพบคอร์ด 15 เวอร์ชั่น
ถ้าเธอหลายใจ - กะลา
เมื่อ 14 ปีที่แล้ว
ค้นพบคอร์ด 10 เวอร์ชั่น
รอ - กะลา
เมื่อ 15 ปีที่แล้ว
ค้นพบคอร์ด 12 เวอร์ชั่น
เป็นแฟนกันตั้งแต่เมื่อไหร่ - กะลา
เมื่อ 12 ปีที่แล้ว
ค้นพบคอร์ด 7 เวอร์ชั่น
ทำใจให้ชิน - กะลา (Kala)
เมื่อ 9 ปีที่แล้ว
ค้นพบคอร์ด 1 เวอร์ชั่น
หยุด - กะลา (KALA)
เมื่อ 9 ปีที่แล้ว
ยังไม่มีคอร์ด
กะลา (ใช่ไหม) - กะลา KALA
เมื่อ 12 ปีที่แล้ว
ค้นพบคอร์ด 13 เวอร์ชั่น
ใช่ฉันหรือปล่าว - กะลา
เมื่อ 12 ปีที่แล้ว
ค้นพบคอร์ด 13 เวอร์ชั่น
เจ็บนี้มันลึก - กะลา
เมื่อ 14 ปีที่แล้ว
ค้นพบคอร์ด 16 เวอร์ชั่น
ปิดตา - กะลา
เมื่อ 14 ปีที่แล้ว
ค้นพบคอร์ด 11 เวอร์ชั่น
ใช่ฉันหรือเปล่า - กะลา
เมื่อ 12 ปีที่แล้ว
ค้นพบคอร์ด 32 เวอร์ชั่น
4 นาที - กะลา
เมื่อ 11 ปีที่แล้ว
ค้นพบคอร์ด 18 เวอร์ชั่น
นาฬิกาของคนรักกัน - กะลา (KALA)
เมื่อ 7 ปีที่แล้ว
ค้นพบคอร์ด 2 เวอร์ชั่น
ขอแค่ได้ฝัน - กะลา
เมื่อ 12 ปีที่แล้ว
ค้นพบคอร์ด 4 เวอร์ชั่น
ไม่มีทาง - กะลา
เมื่อ 14 ปีที่แล้ว
ค้นพบคอร์ด 7 เวอร์ชั่น
คนดีที่เย็นชา - กะลา (Kala)
เมื่อ 11 ปีที่แล้ว
ค้นพบคอร์ด 4 เวอร์ชั่น