คอร์ดเพลง ขาดความอบอุ่น - เสือใหญ่

Version 10
แกะโดย อิ๊ก
เมื่อ 29 มิ.ย.2548,12:18น.
ดู 574 ครั้ง
2--------------------------------------------------------------------------------------------------
3---------------7-8/10----10-12-14-15---15-14-------------------------------------------
4------7-----7----------------------------------------16-14-16---14-12-14--12-11----7-
5---------------------------------------------------------------------------------------------------


2-----------------------------------------------------------17----15-14-15---------------7---------------
3---------------7-8/10----10-12-14-15---17-15-------------------------------7-8----10-8--10---
4------7-----7------------------------------------------------------------------------------------------------
5--------------------------------------------------------------------------------------------------------------

อันนี้น่าจาเหทือนกว่าน้า
เด๋วส่งไปใหม่
คือกว่านี้อีก
ขี้เกียจพิมพ์

คอร์ดเพลง ขาดความอบอุ่น

ความคิดเห็นเกี่ยวกับคอร์ดนี้

เวอร์ชั่นทั้งหมดของคอร์ดเพลงนี้

คอร์ดเพลง ขาดความอบอุ่น

27 | 4
โดย tui/sd
เมื่อ 14 ปีที่แล้ว

คอร์ดเพลง ขาดความอบอุ่น

0 | 0
โดย :10:
เมื่อ 11 ปีที่แล้ว

คอร์ดเพลง ขาดความอบอุ่น

0 | 0
โดย อิ๊ก
เมื่อ 14 ปีที่แล้ว

คอร์ดเพลง ขาดความอบอุ่น

0 | 0
โดย อิ๊ก
เมื่อ 14 ปีที่แล้ว

คอร์ดเพลง ขาดความอบอุ่น

0 | 0
โดย วอร์
เมื่อ 14 ปีที่แล้ว

คอร์ดเพลง ขาดความอบอุ่น

0 | 0
โดย ~นิวส์~
เมื่อ 14 ปีที่แล้ว

คอร์ดเพลง ขาดความอบอุ่น

0 | 0
โดย บอล subyo
เมื่อ 14 ปีที่แล้ว

คอร์ดเพลง ขาดความอบอุ่น

0 | 0
โดย AWAKE13
เมื่อ 14 ปีที่แล้ว

คอร์ดเพลง ขาดความอบอุ่น

0 | 0
โดย dod
เมื่อ 14 ปีที่แล้ว

คอร์ดเพลง ขาดความอบอุ่น

0 | 0
โดย [lll-} {-'''] เดกวง FooLz boYz `
เมื่อ 14 ปีที่แล้ว

คอร์ดเพลง ขาดความอบอุ่น

0 | 0
โดย SOULMAGE
เมื่อ 14 ปีที่แล้ว

คอร์ดเพลง ขาดความอบอุ่น

0 | 0
โดย เด็กลำปางกัลยาณี
เมื่อ 14 ปีที่แล้ว

เนื้อเพลง ขาดความอบอุ่น - เสือใหญ่

rtist:เสือใหญ่
เพลง ขาดความอบอุ่น

Intro 2

2ครั้ง 2 ครั้ง


4





ถามว่าฉันเป็นอะไร ถามว่าไม่สบายหรือปล่าว

ฐานะคนเคยสนิท เธอก็คิดเป็นห่วงเป็นใย

ฉันก็แค่บรรยากาศพาไป

คืนที่ฟ้าไม่มีดาว คนก็เหงามันไปเรื่อยเปื่อย

*ฉันไม่ได้เจ็บได้ป่วย ไม่ต้องเป็นห่วงเป็นใย

แค่ฉันขาดความอบอุ่นทางใจ

**แค่กอดกันก็พอ ถ้าหากจะขอได้

ถ้าขอได้ ก็ขอแค่นี้และกัน

แค่กอดกันก็พอ ที่เหลือก็ปล่อยฉันมันเพ้อมันพร่ำของมัน..ไป

2ครั้ง 2 ครั้ง


4





คืนที่ฟ้าไม่มีดาว คนก็เหงามันไปเรื่อยเปื่อย

*ฉันไม่ได้เจ็บได้ป่วย ไม่ต้องเป็นห่วงเป็นใย


แค่ฉันขาดความอบอุ่นทางใจ

**แค่กอดกันก็พอ ถ้าหากจะขอได้

ถ้าขอได้ ก็ขอแค่นี้และกัน

แค่กอดกันก็พอ ที่เหลือก็ปล่อยฉันมันเพ้อมันพร่ำของมัน..ไป(หัวใจ) …. อีเย้เย

SOLO:
3—3/5—9/10—9p10p9—7— 5/
7—8—7—3


3—3/5—9/10—10/12—10—15/17—15—14—15





15/15/15/13/14




(ซ้า*/**)

คอร์ดน่าจะตรงนะโซ่โล่อาจไม่เหมือนทั้งหมดแต่ก็ใกล้เคียงและล่ะ

ป.ล ที่ต้องโพสใหม่เพราะโพสซำหน้าเดิมะได้อะ

Cover เพลงขาดความอบอุ่น


ยังไม่มี Cover เพลงนี้

[ ช่วยกันแบ่งปันคลิปเพลงที่คุณเล่นเอง ]

ฟังเพลง ขาดความอบอุ่น

ขาดความอบอุ่น - เสือใหญ่
เมื่อ 14 ปีที่แล้ว
ค้นพบคอร์ด 14 เวอร์ชั่น
ดีแต่... - เสือใหญ่
เมื่อ 14 ปีที่แล้ว
ค้นพบคอร์ด 4 เวอร์ชั่น
หัวใจล้มเหลว - เสือใหญ่
เมื่อ 13 ปีที่แล้ว
ค้นพบคอร์ด 11 เวอร์ชั่น
ได้ยินแล้วหายเหนื่อย - เสือใหญ่
เมื่อ 13 ปีที่แล้ว
ค้นพบคอร์ด 11 เวอร์ชั่น
เหนื่อยเปล่า - เสือใหญ่
เมื่อ 14 ปีที่แล้ว
ค้นพบคอร์ด 2 เวอร์ชั่น
เท่าที่ได้ - เสือใหญ่
เมื่อ 14 ปีที่แล้ว
ค้นพบคอร์ด 3 เวอร์ชั่น
ฟ้า..ลำเอียง - เสือใหญ่
เมื่อ 14 ปีที่แล้ว
ค้นพบคอร์ด 2 เวอร์ชั่น
ที่ใจหาเจอ - เสือใหญ่
เมื่อ 11 ปีที่แล้ว
ค้นพบคอร์ด 7 เวอร์ชั่น
วัตถุคล้ายเพลง - เสือใหญ่
เมื่อ 13 ปีที่แล้ว
ค้นพบคอร์ด 1 เวอร์ชั่น
รัก.. ยิ่งกว่ารัก - เสือใหญ่
เมื่อ 14 ปีที่แล้ว
ค้นพบคอร์ด 1 เวอร์ชั่น
เพราะเธอ - เสือใหญ่
เมื่อ 14 ปีที่แล้ว
ยังไม่มีคอร์ด
ฟ้าลำเอียง - เสือใหญ่
เมื่อ 6 ปีที่แล้ว
ค้นพบคอร์ด 1 เวอร์ชั่น
รักยิ่งกว่ารัก - เสือใหญ่
เมื่อ 6 ปีที่แล้ว
ค้นพบคอร์ด 1 เวอร์ชั่น