คอร์ดเพลง ข้าน้อยสมควรตาย - บิ๊กแอส (Big Ass)

Version 15
แกะโดย Guitar - Freaky
เมื่อ 13 ม.ค.2550,15:03น.
ดู 721 ครั้ง
ลองเล่นดูนะ

โลกใบนี้...เหมือนมีคำสาป .............
G#m
E -----------------------------------------------------------------------------------------------
B -----------------------------------------------------------------------------------------------
G ------------4---------------3------------------4-----------------3-----------------3h4----
D-------------4---------------4------------------4-----------------4-----------------4-------
A------------------------------------------------------------------------------------------------
E----4--4----------4--4--------------4--4--------------4--4---------------4--4-----------
* * * * * * * * * *

E
E ------------------------------------------------------------------------------------------------
B ------------------------------------------------------------------------------------------------
G -------------4---------------3------------------4-----------------3-----------------3h4----
D--------------4---------------4------------------4-----------------4-----------------4-------
A------------------------------------------------------------------------------------------------
E----0-0-0----------0--0--------------0--0--------------0--0---------------0--0-----------
* * * * * * * * * * *

C#m
E ------------------------------------------------------------------------------------------------
B ------------------------------------------------------------------------------------------------
G -------------4---------------3------------------4-----------------3-----------------3h4----
D--------------4---------------4------------------4-----------------4-----------------4-------
A----4-4-4-----------4-4-------------4-4----------------4-4-------------4-4---------------
E ------------------------------------------------------------------------------------------------
* * * * * * * * * * *

E F#
E -------------------------------------------------------------------------------------------------------
B -------------------------------------------------------------------------------------------------------
G -------------4---------------3------------------4--------------3----------4---4---6--6---8------
D--------------4---------------4------------------4--------------4----------x---x---x---x---x------
A------------------------------------------------------------------------------2---2---4--4---6------
E----0-0-0----------0--0--------------0--0--------------0------------------------------------------
* * * * * * * *

คิดจาไปเปนมือที่สาม มันก็ควรต้องโดนสักที
C#m Eb E F#
E ---------------------------------------------------------------------------------------------------
B ---------------------------------------------------------------------------------------------------
G ---6-------6------8------8-------9------9------11-11-11-11-------------------------------
D----6-------6------8------8-------9------9------11-11-11-11--------------------------------
A----4-4-4-4-4-4-6-6-6-6-6-6-7-7-7-7-7-7-9---9--9---9---------------------------------
E-----------------------------------------------------------------------------------------------------
* * * * * * * * * * * *

ฉันไม่ได้อยากเลว ไม่อยากทำอย่างนี้
B G#m E C#m F#
Guitar 1 ดีดคอร์ดธรรมดา (ฟังจังหวะเอา)
Guitar 2 (เล่นงี้มั้ง)
E -------------------------------------------------------
B -------------------------------------------------------
G----11-----------11-----11-------------------------
D-----x-------------x-------x---------------------------
A-----9---9---9---9---9---9--------------------------
E---------------------------------------------------------
* * *
ก่อน Solo
E ------------------------------------------------------------------------
B ------------------------------------------------------------------------
G----4---4---3---3---3--------------9---9---8---8---8-------------
D----4---4---4---4---4--------------9---9---9---9---9---------------
A----2---2---2---2---2--------------7---7---7---7---7-------------
E--------------------------------------------------------------------------
คอร์ดเพลง ข้าน้อยสมควรตาย

ความคิดเห็นเกี่ยวกับคอร์ดนี้

เวอร์ชั่นทั้งหมดของคอร์ดเพลงนี้

คอร์ดเพลง ข้าน้อยสมควรตาย

5 | 0
โดย atimetion
เมื่อ 12 ปีที่แล้ว

คอร์ดเพลง ข้าน้อยสมควรตาย

0 | 0
โดย thiang
เมื่อ 2 ปีที่แล้ว

คอร์ดเพลง ข้าน้อยสมควรตาย

0 | 0
โดย บ.ด.4
เมื่อ 11 ปีที่แล้ว

คอร์ดเพลง ข้าน้อยสมควรตาย

0 | 0
โดย โอโต้
เมื่อ 12 ปีที่แล้ว

คอร์ดเพลง ข้าน้อยสมควรตาย

0 | 0
โดย ออฟ
เมื่อ 12 ปีที่แล้ว

คอร์ดเพลง ข้าน้อยสมควรตาย

0 | 0
โดย aumz
เมื่อ 12 ปีที่แล้ว

คอร์ดเพลง ข้าน้อยสมควรตาย

0 | 0
โดย Am F
เมื่อ 12 ปีที่แล้ว

คอร์ดเพลง ข้าน้อยสมควรตาย

0 | 0
โดย มือกีต้า ระดับโลก
เมื่อ 12 ปีที่แล้ว

คอร์ดเพลง ข้าน้อยสมควรตาย

0 | 0
โดย เนตร
เมื่อ 12 ปีที่แล้ว

คอร์ดเพลง ข้าน้อยสมควรตาย

0 | 0
โดย Guitar-Freaky
เมื่อ 12 ปีที่แล้ว

คอร์ดเพลง ข้าน้อยสมควรตาย

0 | 0
โดย Guitar - Freaky
เมื่อ 12 ปีที่แล้ว

คอร์ดเพลง ข้าน้อยสมควรตาย

0 | 0
โดย แบงค์
เมื่อ 12 ปีที่แล้ว

คอร์ดเพลง ข้าน้อยสมควรตาย

0 | 0
โดย SRV
เมื่อ 12 ปีที่แล้ว

คอร์ดเพลง ข้าน้อยสมควรตาย

0 | 0
โดย ลุจจิ
เมื่อ 12 ปีที่แล้ว

คอร์ดเพลง ข้าน้อยสมควรตาย

0 | 0
โดย armyหรือตัวโอACU
เมื่อ 12 ปีที่แล้ว

คอร์ดเพลง ข้าน้อยสมควรตาย

0 | 0
โดย ผมแค่หวังดี
เมื่อ 12 ปีที่แล้ว

คอร์ดเพลง ข้าน้อยสมควรตาย

0 | 0
โดย เจมทิว
เมื่อ 12 ปีที่แล้ว

คอร์ดเพลง ข้าน้อยสมควรตาย

0 | 0
โดย gfdfghdfg
เมื่อ 12 ปีที่แล้ว

คอร์ดเพลง ข้าน้อยสมควรตาย

0 | 0
โดย บอล(HaRmOnIc)
เมื่อ 12 ปีที่แล้ว

คอร์ดเพลง ข้าน้อยสมควรตาย

0 | 0
โดย แ ค น A u t u n n o
เมื่อ 12 ปีที่แล้ว

คอร์ดเพลง ข้าน้อยสมควรตาย

0 | 0
โดย p-@ek
เมื่อ 12 ปีที่แล้ว

คอร์ดเพลง ข้าน้อยสมควรตาย

0 | 0
โดย p-@ek
เมื่อ 12 ปีที่แล้ว

คอร์ดเพลง ข้าน้อยสมควรตาย

0 | 0
โดย เดียร์ Power-COM
เมื่อ 12 ปีที่แล้ว

คอร์ดเพลง ข้าน้อยสมควรตาย

0 | 0
โดย pickboyz
เมื่อ 12 ปีที่แล้ว

เนื้อเพลง ข้าน้อยสมควรตาย - บิ๊กแอส (Big Ass)

โลกใบนี้ เหมือน มีคำสาปให้คน
ทุกคนทำสิ่งต้องห้าม ก็รู้ว่าไม่ดี
จะผิดขนาดไหน หัวใจก็ยังดื้อรั้น
ไม่รู้ว่าทำไมยังดื้อด้าน เลวสิ้นดี

*คิดจะไปเป็นที่สาม มันก็สมควรต้องโดนสักที

**ฉันไม่ได้อยากเลว ไม่อยากทำอย่างนี้
มันผิดจริงๆ ก็พอรู้ตัวดี ก็ได้แต่โทษทีที่ช้านทำไป

ฉันไม่ได้อยากเลว แต่หยุดใจไม่ไหว
ก็ผิดจริงๆ อย่างนี้สมควรตาย
แต่จะให้ทำไง เมื่อทั้งหัวใจรักเธอ

คนเป็นล้านหัวใจทำไมไม่รัก เหลือคนยังโสดตั้งมากไปรักเขาบ้างสิ
มันผิดเข้าใจไหม หัวใจทำไมไม่ฟัง ก็รู้ใจของเธอมันไม่ว่าง ดูบ้างสิ

(*,**)
Solo.
(*,**)
ก็จะให้ทำ ไง เมื่อทั้งหัวใจรักเธอ

Cover เพลงข้าน้อยสมควรตาย


ยังไม่มี Cover เพลงนี้

[ ช่วยกันแบ่งปันคลิปเพลงที่คุณเล่นเอง ]

ฟังเพลง ข้าน้อยสมควรตาย

ทุ้มอยู่ในใจ - บิ๊กแอส (Big Ass)
เมื่อ 8 ปีที่แล้ว
ยังไม่มีคอร์ด
พรหมลิขิต - บิ๊กแอส (Big Ass)
เมื่อ 12 ปีที่แล้ว
ค้นพบคอร์ด 82 เวอร์ชั่น
ลมเปลี่ยนทิศ - บิ๊กแอส (Big ass)
เมื่อ 6 ปีที่แล้ว
ค้นพบคอร์ด 4 เวอร์ชั่น
เล่นของสูง - บิ๊กแอส (Big Ass)
เมื่อ 14 ปีที่แล้ว
ค้นพบคอร์ด 40 เวอร์ชั่น
ทิ้งไว้ในใจ - บิ๊กแอส (Big Ass)
เมื่อ 16 ปีที่แล้ว
ค้นพบคอร์ด 22 เวอร์ชั่น
คนหลงทาง - บิ๊กแอส (Big Ass)
เมื่อ 12 ปีที่แล้ว
ค้นพบคอร์ด 84 เวอร์ชั่น
อย่างน้อย - บิ๊กแอส(ost.ปิดเทอมใหญ่ หัวใจว้าวุ่น)
เมื่อ 11 ปีที่แล้ว
ค้นพบคอร์ด 26 เวอร์ชั่น
ทางผ่าน - บิ๊กแอส (Big Ass)
เมื่อ 15 ปีที่แล้ว
ค้นพบคอร์ด 11 เวอร์ชั่น
ก่อนตาย - บิ๊กแอส (Big Ass)
เมื่อ 15 ปีที่แล้ว
ค้นพบคอร์ด 22 เวอร์ชั่น
เรา - บิ๊กแอส บอดี้สแลม
เมื่อ 13 ปีที่แล้ว
ค้นพบคอร์ด 23 เวอร์ชั่น
ข้าน้อยสมควรตาย - บิ๊กแอส (Big Ass)
เมื่อ 12 ปีที่แล้ว
ค้นพบคอร์ด 27 เวอร์ชั่น
หัวใจ - บิ๊กแอส (Big Ass)
เมื่อ 10 ปีที่แล้ว
ค้นพบคอร์ด 2 เวอร์ชั่น
ส่งท้ายคนเก่าต้อนรับคนใหม่ - บิ๊กแอส (Big Ass)
เมื่อ 10 ปีที่แล้ว
ยังไม่มีคอร์ด
สิ่งกีดขวาง - บิ๊กแอส (Big Ass)
เมื่อ 12 ปีที่แล้ว
ค้นพบคอร์ด 27 เวอร์ชั่น
พรมลิขิต - บิ๊กแอส
เมื่อ 12 ปีที่แล้ว
ค้นพบคอร์ด 25 เวอร์ชั่น
น้ำตา(Big Ass) - บิ๊กแอส (Big Ass)
เมื่อ 14 ปีที่แล้ว
ค้นพบคอร์ด 9 เวอร์ชั่น
บันทึกหน้าสุดท้าย - บิ๊กแอส (Big Ass)
เมื่อ 10 ปีที่แล้ว
ยังไม่มีคอร์ด
ฝุ่น - บิ๊กแอส (big Ass)
เมื่อ 10 ปีที่แล้ว
ค้นพบคอร์ด 7 เวอร์ชั่น
ดีแต่ปาก - บิ๊กแอส (Big Ass)
เมื่อ 14 ปีที่แล้ว
ค้นพบคอร์ด 22 เวอร์ชั่น
เหตุผลง่ายๆ - บิ๊กแอส (BigAss)
เมื่อ 16 ปีที่แล้ว
ค้นพบคอร์ด 7 เวอร์ชั่น