คอร์ดเพลง ข้าน้อยสมควรตาย - บิ๊กแอส (Big Ass)

Version 20
แกะโดย Am F
เมื่อ 22 ก.พ.2550,11:46น.
ดู 556 ครั้ง

Am F Dm7 F/G
โลกใบนี้ เหมือนมีคำสาปให้คน ทุกคน ทำสิ่งต้องห้าม ก็รู้ว่าไม่ดี
Am F Dm7 F/G
จะผิดขนาดไหน หัวใจก็ยังดื้อรั้น ไม่รู้ว่าทำไมดื้อด้าน เลวสิ้นดี
Dm7 Em F5 G/G5
* คิดจะไปเป็นมือที่สาม มันก็ควรต้องโดนสักที
C5 Am/Am7
**ฉันไม่ได้อยากเลว ไม่อยากทำอย่างนี้
F5 D5 G5
ผิดจริงๆก็พอรู้ตัวดี ก็ได้แต่โทษทีที่ฉันทำไป
C5 Am/Am7
ฉันไม่ได้อยากเลว แค่หยุดใจไม่ไหว
F5 D5 G5 (C5/B5/C5) G
ก็ผิดจริงๆอย่างนี้สมควรตาย (แต่)ก็จะให้ทำไง ก็ทั้งหัวใจ รักเธอ

ทริปเล่นเพลงนี้ ให้ ตั้งสายดร็อปต่ำกว่ามาตราฐาน ครึ่งเสียง ให้เป็น
E -> Eb
B -> Bb
G -> Gb
D -> Db
A -> Ab
E -> Eb
จังหวะเริ่มให้เอามือขวาอุดสายไว้ จากนั้นเล่นคอร์ด Am ธรรมดา โดยดีดเริ่มที่สาย 5 ตามจำนวนของเสียง 2 ครั้ง แล้วดีดเน้นลงไปที่ สาย 3 และ 2 โดยที่จับคอร์ด Am และเล่นที่สาย 5 อีกหนึ่ง และ ปล่อยนิ้วชี้ออกจังหวะดีดลง และกดตามจังหวะของกลอง ตาม Tab
Eb1 -------------------------------------------------------------------------
Bb 2---------------1--------0---------1--------0--------0h1-----------------
Gb 3:--------------2--------2---------2--------2--------2--------------------
Db 4:--------------2--------2---------2--------2--------2--------------------
Ab 5: -----0--0--------0---------0-------0-------0------------------------
Eb 6: ------------------------------------------------------------------------
พอเปลี่ยน คอร์ดF ก็เปลี่ยนจากเบสเป็นสาย 4 แทนตามนี้ และDm7 ก็ทำแบบนี้เช่นกัน
Eb1 ---------------1--------0---------1----------0----------0h1---------
Bb 2---------------1--------0---------1----------0----------0h1---------
Gb 3:--------------2--------2---------2----------2----------2------------
Db 4:-------3-3--------3--------3----------3----------3-----------------
Ab 5: -----------------------------------------------------------------------
Eb 6: -----------------------------------------------------------------------
พอเข้าคอร์ด F อีกครั้งอาศัยความไวของนิ้วเล็กน้อยตามนี้เลยครับ + s + หมายถึง การสไลด์ นะครับ
Eb1 ---------------1--------1p0---------1---+s+----3-----------------
Bb 2---------------3--------1p0---------3---+s+----5-----------------
Gb 3:--------------2--------2---------2----------------4-----------------
Db 4:-------3-3--------3--------3----------3--------- 5-----------------
Ab 5: -----------------------------------------------------------------------
Eb 6: -----------------------------------------------------------------------
ส่วนทอนบริด ให้จับตามคอร์ด Dm7 และเกาตั้งแต่สาย 1 - 3 ตามจังหวะและเล่นตามคอร์ดอะนะครับ
ส่วนทอนฮุค ถ้าเพื่อนๆเล่นมทือขวาตามจังหวะได้แล้วไม่ใช่เรื่องยากอ
คอร์ดเพลง ข้าน้อยสมควรตาย

ความคิดเห็นเกี่ยวกับคอร์ดนี้

เวอร์ชั่นทั้งหมดของคอร์ดเพลงนี้

คอร์ดเพลง ข้าน้อยสมควรตาย

5 | 0
โดย atimetion
เมื่อ 12 ปีที่แล้ว

คอร์ดเพลง ข้าน้อยสมควรตาย

0 | 0
โดย thiang
เมื่อ 2 ปีที่แล้ว

คอร์ดเพลง ข้าน้อยสมควรตาย

0 | 0
โดย บ.ด.4
เมื่อ 11 ปีที่แล้ว

คอร์ดเพลง ข้าน้อยสมควรตาย

0 | 0
โดย โอโต้
เมื่อ 12 ปีที่แล้ว

คอร์ดเพลง ข้าน้อยสมควรตาย

0 | 0
โดย ออฟ
เมื่อ 12 ปีที่แล้ว

คอร์ดเพลง ข้าน้อยสมควรตาย

0 | 0
โดย aumz
เมื่อ 12 ปีที่แล้ว

คอร์ดเพลง ข้าน้อยสมควรตาย

0 | 0
โดย Am F
เมื่อ 12 ปีที่แล้ว

คอร์ดเพลง ข้าน้อยสมควรตาย

0 | 0
โดย มือกีต้า ระดับโลก
เมื่อ 12 ปีที่แล้ว

คอร์ดเพลง ข้าน้อยสมควรตาย

0 | 0
โดย เนตร
เมื่อ 12 ปีที่แล้ว

คอร์ดเพลง ข้าน้อยสมควรตาย

0 | 0
โดย Guitar-Freaky
เมื่อ 12 ปีที่แล้ว

คอร์ดเพลง ข้าน้อยสมควรตาย

0 | 0
โดย Guitar - Freaky
เมื่อ 12 ปีที่แล้ว

คอร์ดเพลง ข้าน้อยสมควรตาย

0 | 0
โดย แบงค์
เมื่อ 12 ปีที่แล้ว

คอร์ดเพลง ข้าน้อยสมควรตาย

0 | 0
โดย SRV
เมื่อ 12 ปีที่แล้ว

คอร์ดเพลง ข้าน้อยสมควรตาย

0 | 0
โดย ลุจจิ
เมื่อ 12 ปีที่แล้ว

คอร์ดเพลง ข้าน้อยสมควรตาย

0 | 0
โดย armyหรือตัวโอACU
เมื่อ 12 ปีที่แล้ว

คอร์ดเพลง ข้าน้อยสมควรตาย

0 | 0
โดย ผมแค่หวังดี
เมื่อ 12 ปีที่แล้ว

คอร์ดเพลง ข้าน้อยสมควรตาย

0 | 0
โดย เจมทิว
เมื่อ 12 ปีที่แล้ว

คอร์ดเพลง ข้าน้อยสมควรตาย

0 | 0
โดย gfdfghdfg
เมื่อ 12 ปีที่แล้ว

คอร์ดเพลง ข้าน้อยสมควรตาย

0 | 0
โดย บอล(HaRmOnIc)
เมื่อ 12 ปีที่แล้ว

คอร์ดเพลง ข้าน้อยสมควรตาย

0 | 0
โดย แ ค น A u t u n n o
เมื่อ 12 ปีที่แล้ว

คอร์ดเพลง ข้าน้อยสมควรตาย

0 | 0
โดย p-@ek
เมื่อ 12 ปีที่แล้ว

คอร์ดเพลง ข้าน้อยสมควรตาย

0 | 0
โดย p-@ek
เมื่อ 12 ปีที่แล้ว

คอร์ดเพลง ข้าน้อยสมควรตาย

0 | 0
โดย เดียร์ Power-COM
เมื่อ 12 ปีที่แล้ว

คอร์ดเพลง ข้าน้อยสมควรตาย

0 | 0
โดย pickboyz
เมื่อ 12 ปีที่แล้ว

เนื้อเพลง ข้าน้อยสมควรตาย - บิ๊กแอส (Big Ass)

โลกใบนี้ เหมือน มีคำสาปให้คน
ทุกคนทำสิ่งต้องห้าม ก็รู้ว่าไม่ดี
จะผิดขนาดไหน หัวใจก็ยังดื้อรั้น
ไม่รู้ว่าทำไมยังดื้อด้าน เลวสิ้นดี

*คิดจะไปเป็นที่สาม มันก็สมควรต้องโดนสักที

**ฉันไม่ได้อยากเลว ไม่อยากทำอย่างนี้
มันผิดจริงๆ ก็พอรู้ตัวดี ก็ได้แต่โทษทีที่ช้านทำไป

ฉันไม่ได้อยากเลว แต่หยุดใจไม่ไหว
ก็ผิดจริงๆ อย่างนี้สมควรตาย
แต่จะให้ทำไง เมื่อทั้งหัวใจรักเธอ

คนเป็นล้านหัวใจทำไมไม่รัก เหลือคนยังโสดตั้งมากไปรักเขาบ้างสิ
มันผิดเข้าใจไหม หัวใจทำไมไม่ฟัง ก็รู้ใจของเธอมันไม่ว่าง ดูบ้างสิ

(*,**)
Solo.
(*,**)
ก็จะให้ทำ ไง เมื่อทั้งหัวใจรักเธอ

Cover เพลงข้าน้อยสมควรตาย


ยังไม่มี Cover เพลงนี้

[ ช่วยกันแบ่งปันคลิปเพลงที่คุณเล่นเอง ]

ฟังเพลง ข้าน้อยสมควรตาย

ทุ้มอยู่ในใจ - บิ๊กแอส (Big Ass)
เมื่อ 8 ปีที่แล้ว
ยังไม่มีคอร์ด
พรหมลิขิต - บิ๊กแอส (Big Ass)
เมื่อ 12 ปีที่แล้ว
ค้นพบคอร์ด 82 เวอร์ชั่น
ลมเปลี่ยนทิศ - บิ๊กแอส (Big ass)
เมื่อ 6 ปีที่แล้ว
ค้นพบคอร์ด 4 เวอร์ชั่น
เล่นของสูง - บิ๊กแอส (Big Ass)
เมื่อ 14 ปีที่แล้ว
ค้นพบคอร์ด 40 เวอร์ชั่น
ทิ้งไว้ในใจ - บิ๊กแอส (Big Ass)
เมื่อ 16 ปีที่แล้ว
ค้นพบคอร์ด 22 เวอร์ชั่น
คนหลงทาง - บิ๊กแอส (Big Ass)
เมื่อ 12 ปีที่แล้ว
ค้นพบคอร์ด 84 เวอร์ชั่น
อย่างน้อย - บิ๊กแอส(ost.ปิดเทอมใหญ่ หัวใจว้าวุ่น)
เมื่อ 11 ปีที่แล้ว
ค้นพบคอร์ด 26 เวอร์ชั่น
ทางผ่าน - บิ๊กแอส (Big Ass)
เมื่อ 15 ปีที่แล้ว
ค้นพบคอร์ด 11 เวอร์ชั่น
ก่อนตาย - บิ๊กแอส (Big Ass)
เมื่อ 15 ปีที่แล้ว
ค้นพบคอร์ด 22 เวอร์ชั่น
เรา - บิ๊กแอส บอดี้สแลม
เมื่อ 13 ปีที่แล้ว
ค้นพบคอร์ด 23 เวอร์ชั่น
ข้าน้อยสมควรตาย - บิ๊กแอส (Big Ass)
เมื่อ 12 ปีที่แล้ว
ค้นพบคอร์ด 27 เวอร์ชั่น
หัวใจ - บิ๊กแอส (Big Ass)
เมื่อ 10 ปีที่แล้ว
ค้นพบคอร์ด 2 เวอร์ชั่น
ส่งท้ายคนเก่าต้อนรับคนใหม่ - บิ๊กแอส (Big Ass)
เมื่อ 10 ปีที่แล้ว
ยังไม่มีคอร์ด
สิ่งกีดขวาง - บิ๊กแอส (Big Ass)
เมื่อ 12 ปีที่แล้ว
ค้นพบคอร์ด 27 เวอร์ชั่น
พรมลิขิต - บิ๊กแอส
เมื่อ 12 ปีที่แล้ว
ค้นพบคอร์ด 25 เวอร์ชั่น
น้ำตา(Big Ass) - บิ๊กแอส (Big Ass)
เมื่อ 14 ปีที่แล้ว
ค้นพบคอร์ด 9 เวอร์ชั่น
บันทึกหน้าสุดท้าย - บิ๊กแอส (Big Ass)
เมื่อ 10 ปีที่แล้ว
ยังไม่มีคอร์ด
ฝุ่น - บิ๊กแอส (big Ass)
เมื่อ 10 ปีที่แล้ว
ค้นพบคอร์ด 7 เวอร์ชั่น
ดีแต่ปาก - บิ๊กแอส (Big Ass)
เมื่อ 14 ปีที่แล้ว
ค้นพบคอร์ด 22 เวอร์ชั่น
เหตุผลง่ายๆ - บิ๊กแอส (BigAss)
เมื่อ 16 ปีที่แล้ว
ค้นพบคอร์ด 7 เวอร์ชั่น