คอร์ดเพลง ข้าน้อยสมควรตาย - บิ๊กแอส (Big Ass)

Version 22
แกะโดย ออฟ
เมื่อ 23 มี.ค.2550,21:06น.
ดู 520 ครั้ง

ข้าน้อยสมควรตาย
ศิลปิน : บิ๊กแอส (Big Ass)

Am F
โลกใบนี้ เหมือน มีคำสาปให้คน
Dm F G
ทุกคนทำสิ่งต้องห้าม ก็รู้ว่าไม่ดี
Am F
จะผิดขนาดไหน หัวใจก็ยังดื้อรั้น
Dm F G/Am
ไม่รู้ว่าทำไมยังดื้อด้าน เลวสิ้นดี

(F/Em)Dm Em F G(G)
*คิดจะ ไปเป็นที่สาม มันก็ควรต้องโดนสักที


C Am
**ฉันไม่ได้อยากเลว ไม่อยากทำอย่างนี้
F Dm G
มันผิดจริงๆ ก็พอรู้ตัวดี ก็ได้แต่โทษทีที่ช้านทำไป


C Am
ฉันไม่ได้อยากเลว แต่หยุดใจไม่ไหว
F Dm
ก็ผิดจริงๆ อย่างนี้สมควรตาย
G C
แต่จะให้ทำไง เมื่อทั้งหัวใจรักเธอ

F G Am F
คน เป็น ล้านหัวใจทำไมไม่รัก
Dm F
เหลือคนยังโสดตั้งมากไปรักเขาบ้างสิ
F G Am F
มันผิดเข้าใจไหม หัวใจทำไมไม่ฟัง
Dm F
ก็รู้ใจของเธอมันไม่ว่าง ดูบ้างสิ



(*,**)

Solo. : C / F ( 4 time)
C / F / Dm / G

(*,**)

F/G Em D C
ก็จะให้ทำไง เมื่อทั้งหัวใจ รักเธอ

solo

ท่อนร้องก็จับพาวเวอร์คอร์ดธรรมดา กดสาย 3 เฟลต 5 กับ 4 ดีดสลับตามจังหวะที่ได้ยิน

solo แทรกท่อนฮุด
3)--12---------12--------12--+
4)------9--10-----9--10------+
ฮุครอบสุดท้าย
1)--0------0----+
2)------3-----3-+

ท่อน C/F
C
2)------------------------------------------
3)--5--5--4--4--4----5--5--4--4--4--
4)--5--5--5--5--5----5--5--5--5--5--
5)-----------------------------------------
6)-----------------------------------------

F
2)--5--5--3--3--3----5--5--3--3--3--
3)--5--5--5--5--5----5--5--5--5--5--
4)------------------------------------------
5)------------------------------------------
6)------------------------------------------

C
2)-------------------------------------------------------------
3)-----------5--5--4--4--4--------------5--5--4--4--4--
4)-5x--5---5--5--5--5--5----5x--5---5--5--5--5--5--
5)-3x--3------------------------3x--3----------------------
6)-------------------------------------------------------------

F
2)------------5--5--3--3--3-------------5--5--3--3--3--
3)-5x--5----5--5--5--5--5---5x--5---5--5--5--5--5--
4)-3x--3------------------------3x--3----------------------
5)-3x--3------------------------3x--3----------------------
6)-------------------------------------------------------------

C
2)-------------------------------------------------------------
3)-----------5--5--4--4--4--------------5--5--4--4--4--
4)-5x--5---5--5--5--5--5----5x--5---5--5--5--5--5--
5)-3x--3------------------------3x--3----------------------
6)-3x--3------------------------3x--3----------------------

F
2)------------5--5--3--3--3-------------5--5--3--3--3-----------------
3)-5x--5----5--5--5--5--5---5x--5---5--5--5--5--5-----------------
4)-3x--3------------------------3x--3---------------------5x--5x--5x--
5)-3x--3------------------------3x--3---------------------3x--3x--3x--
6)-3x--3------------------------3x--3-------------------------------------

solo ท่อน C / F / Dm / G
C
1)----------12s10----------------------------------
2)------13---------13----13s15--15^17--13--
3)--12-----------------12---------------------------

F
1)----------12s10--------13s15--13--12h13p12-----
2)------13---------13-----------------------------------13--
3)--12-----------------12------------------------------------

Dm
1)----------12s10-----------------------------------------------
2)------13---------13--15----13--15^17-15--13----------
3)--12-----------------------12------------------------14--12-

G
2)--15*--17*--18*--20*--20s22--

F/Em(Dm คิดจะไป)
1)---------------------------12--13--15--12--
2)------------12--13--15-----------------------
3)--12--14--------------------------------------

ผมแกะเล่นเองในวง ได้มาแบบนี้ solo ถ้าอยากให้เหมือนให้ใช้ effect ของท่านทำเสียงประสานเอา
แล้วแต่ยี่ห้อว่าจะเหมือนจริงแค่ไหน ถ้าเป็น line6 เหมือน100%
คอร์ดเพลง ข้าน้อยสมควรตาย

ความคิดเห็นเกี่ยวกับคอร์ดนี้

เวอร์ชั่นทั้งหมดของคอร์ดเพลงนี้

คอร์ดเพลง ข้าน้อยสมควรตาย

5 | 0
โดย atimetion
เมื่อ 12 ปีที่แล้ว

คอร์ดเพลง ข้าน้อยสมควรตาย

0 | 0
โดย thiang
เมื่อ 2 ปีที่แล้ว

คอร์ดเพลง ข้าน้อยสมควรตาย

0 | 0
โดย บ.ด.4
เมื่อ 11 ปีที่แล้ว

คอร์ดเพลง ข้าน้อยสมควรตาย

0 | 0
โดย โอโต้
เมื่อ 11 ปีที่แล้ว

คอร์ดเพลง ข้าน้อยสมควรตาย

0 | 0
โดย ออฟ
เมื่อ 12 ปีที่แล้ว

คอร์ดเพลง ข้าน้อยสมควรตาย

0 | 0
โดย aumz
เมื่อ 12 ปีที่แล้ว

คอร์ดเพลง ข้าน้อยสมควรตาย

0 | 0
โดย Am F
เมื่อ 12 ปีที่แล้ว

คอร์ดเพลง ข้าน้อยสมควรตาย

0 | 0
โดย มือกีต้า ระดับโลก
เมื่อ 12 ปีที่แล้ว

คอร์ดเพลง ข้าน้อยสมควรตาย

0 | 0
โดย เนตร
เมื่อ 12 ปีที่แล้ว

คอร์ดเพลง ข้าน้อยสมควรตาย

0 | 0
โดย Guitar-Freaky
เมื่อ 12 ปีที่แล้ว

คอร์ดเพลง ข้าน้อยสมควรตาย

0 | 0
โดย Guitar - Freaky
เมื่อ 12 ปีที่แล้ว

คอร์ดเพลง ข้าน้อยสมควรตาย

0 | 0
โดย แบงค์
เมื่อ 12 ปีที่แล้ว

คอร์ดเพลง ข้าน้อยสมควรตาย

0 | 0
โดย SRV
เมื่อ 12 ปีที่แล้ว

คอร์ดเพลง ข้าน้อยสมควรตาย

0 | 0
โดย ลุจจิ
เมื่อ 12 ปีที่แล้ว

คอร์ดเพลง ข้าน้อยสมควรตาย

0 | 0
โดย armyหรือตัวโอACU
เมื่อ 12 ปีที่แล้ว

คอร์ดเพลง ข้าน้อยสมควรตาย

0 | 0
โดย ผมแค่หวังดี
เมื่อ 12 ปีที่แล้ว

คอร์ดเพลง ข้าน้อยสมควรตาย

0 | 0
โดย เจมทิว
เมื่อ 12 ปีที่แล้ว

คอร์ดเพลง ข้าน้อยสมควรตาย

0 | 0
โดย gfdfghdfg
เมื่อ 12 ปีที่แล้ว

คอร์ดเพลง ข้าน้อยสมควรตาย

0 | 0
โดย บอล(HaRmOnIc)
เมื่อ 12 ปีที่แล้ว

คอร์ดเพลง ข้าน้อยสมควรตาย

0 | 0
โดย แ ค น A u t u n n o
เมื่อ 12 ปีที่แล้ว

คอร์ดเพลง ข้าน้อยสมควรตาย

0 | 0
โดย p-@ek
เมื่อ 12 ปีที่แล้ว

คอร์ดเพลง ข้าน้อยสมควรตาย

0 | 0
โดย p-@ek
เมื่อ 12 ปีที่แล้ว

คอร์ดเพลง ข้าน้อยสมควรตาย

0 | 0
โดย เดียร์ Power-COM
เมื่อ 12 ปีที่แล้ว

คอร์ดเพลง ข้าน้อยสมควรตาย

0 | 0
โดย pickboyz
เมื่อ 12 ปีที่แล้ว

เนื้อเพลง ข้าน้อยสมควรตาย - บิ๊กแอส (Big Ass)

โลกใบนี้ เหมือน มีคำสาปให้คน
ทุกคนทำสิ่งต้องห้าม ก็รู้ว่าไม่ดี
จะผิดขนาดไหน หัวใจก็ยังดื้อรั้น
ไม่รู้ว่าทำไมยังดื้อด้าน เลวสิ้นดี

*คิดจะไปเป็นที่สาม มันก็สมควรต้องโดนสักที

**ฉันไม่ได้อยากเลว ไม่อยากทำอย่างนี้
มันผิดจริงๆ ก็พอรู้ตัวดี ก็ได้แต่โทษทีที่ช้านทำไป

ฉันไม่ได้อยากเลว แต่หยุดใจไม่ไหว
ก็ผิดจริงๆ อย่างนี้สมควรตาย
แต่จะให้ทำไง เมื่อทั้งหัวใจรักเธอ

คนเป็นล้านหัวใจทำไมไม่รัก เหลือคนยังโสดตั้งมากไปรักเขาบ้างสิ
มันผิดเข้าใจไหม หัวใจทำไมไม่ฟัง ก็รู้ใจของเธอมันไม่ว่าง ดูบ้างสิ

(*,**)
Solo.
(*,**)
ก็จะให้ทำ ไง เมื่อทั้งหัวใจรักเธอ

Cover เพลงข้าน้อยสมควรตาย


ยังไม่มี Cover เพลงนี้

[ ช่วยกันแบ่งปันคลิปเพลงที่คุณเล่นเอง ]

ฟังเพลง ข้าน้อยสมควรตาย

ทุ้มอยู่ในใจ - บิ๊กแอส (Big Ass)
เมื่อ 8 ปีที่แล้ว
ยังไม่มีคอร์ด
พรหมลิขิต - บิ๊กแอส (Big Ass)
เมื่อ 12 ปีที่แล้ว
ค้นพบคอร์ด 82 เวอร์ชั่น
ลมเปลี่ยนทิศ - บิ๊กแอส (Big ass)
เมื่อ 6 ปีที่แล้ว
ค้นพบคอร์ด 4 เวอร์ชั่น
เล่นของสูง - บิ๊กแอส (Big Ass)
เมื่อ 14 ปีที่แล้ว
ค้นพบคอร์ด 40 เวอร์ชั่น
ทิ้งไว้ในใจ - บิ๊กแอส (Big Ass)
เมื่อ 16 ปีที่แล้ว
ค้นพบคอร์ด 22 เวอร์ชั่น
คนหลงทาง - บิ๊กแอส (Big Ass)
เมื่อ 12 ปีที่แล้ว
ค้นพบคอร์ด 84 เวอร์ชั่น
อย่างน้อย - บิ๊กแอส(ost.ปิดเทอมใหญ่ หัวใจว้าวุ่น)
เมื่อ 11 ปีที่แล้ว
ค้นพบคอร์ด 26 เวอร์ชั่น
ทางผ่าน - บิ๊กแอส (Big Ass)
เมื่อ 15 ปีที่แล้ว
ค้นพบคอร์ด 11 เวอร์ชั่น
ก่อนตาย - บิ๊กแอส (Big Ass)
เมื่อ 15 ปีที่แล้ว
ค้นพบคอร์ด 22 เวอร์ชั่น
เรา - บิ๊กแอส บอดี้สแลม
เมื่อ 13 ปีที่แล้ว
ค้นพบคอร์ด 23 เวอร์ชั่น
ข้าน้อยสมควรตาย - บิ๊กแอส (Big Ass)
เมื่อ 12 ปีที่แล้ว
ค้นพบคอร์ด 27 เวอร์ชั่น
หัวใจ - บิ๊กแอส (Big Ass)
เมื่อ 10 ปีที่แล้ว
ค้นพบคอร์ด 2 เวอร์ชั่น
ส่งท้ายคนเก่าต้อนรับคนใหม่ - บิ๊กแอส (Big Ass)
เมื่อ 10 ปีที่แล้ว
ยังไม่มีคอร์ด
สิ่งกีดขวาง - บิ๊กแอส (Big Ass)
เมื่อ 12 ปีที่แล้ว
ค้นพบคอร์ด 27 เวอร์ชั่น
พรมลิขิต - บิ๊กแอส
เมื่อ 12 ปีที่แล้ว
ค้นพบคอร์ด 25 เวอร์ชั่น
น้ำตา(Big Ass) - บิ๊กแอส (Big Ass)
เมื่อ 14 ปีที่แล้ว
ค้นพบคอร์ด 9 เวอร์ชั่น
บันทึกหน้าสุดท้าย - บิ๊กแอส (Big Ass)
เมื่อ 9 ปีที่แล้ว
ยังไม่มีคอร์ด
ฝุ่น - บิ๊กแอส (big Ass)
เมื่อ 9 ปีที่แล้ว
ค้นพบคอร์ด 7 เวอร์ชั่น
ดีแต่ปาก - บิ๊กแอส (Big Ass)
เมื่อ 14 ปีที่แล้ว
ค้นพบคอร์ด 22 เวอร์ชั่น
เหตุผลง่ายๆ - บิ๊กแอส (BigAss)
เมื่อ 16 ปีที่แล้ว
ค้นพบคอร์ด 7 เวอร์ชั่น