คอร์ดเพลง คนที่ถูกรัก - บอดี้สแลม (BodySlam)

Version 7
แกะโดย อ๋อง(เล่นเปงทุกอย่าง)
เมื่อ 30 เม.ย.2549,09:56น.
ดู 522 ครั้ง
มาดูนี่พี่ยอดชัดๆ
INTRO


2/-----9---9-----10---10--10--10นิ้วก้อย แล้วเอานิ้วกลางอุดสาย5กับ6ไว้
3/-----8---8------9-----9---9----9 นิ้วนาง แล้วก้อสาย1ทำให้บอดด้วย
4/-----6---6------7-----7---7----7 นิ้วชี้ แล้วก้อเล่นไปเรื่อยๆตามวิจารณญาน


ใจฉันเคยถูกทิ้ง..................
1/---------------------------------------------------------------------------------------------------------
2/---------------------------------------------------------------------------------------------------------
3/---------1----------1---------1------------1----|--------1------------1------------1-------------1--
4/------2----2----2----2----2----2----2------2-|----2-----2----2-------2------2-----2----2-----2--
5/----0--------0---------0-0---------0-----------|--------------------------------------------------------
6/---------------------------------------------------|-2-----------2------------2--2---------2-----------2

ยังไม่หมดเล่นต่อกันเลย
2/-----------------------------------------------------------|------2-----------2---------แล้วก้อดีดไปเลย
3/---------2------------2-----------2--------------2------|--2----2----2-------2-----คอร์ดDอะ
4/-----2-----2-----2------2-----2-----2-----2------2---|-0-------0--------------0--ตอนนี้อะไปฟังเพลงลองเล่นตามดู
5/---2----------2------------2-2----------2--------------|-----------------------------

สุดท้ายต้องโดน...............พี่ยอดมาแล้ว......อิอิ
2/------------------------------------10---------------------------10-------------
3/---9---9-xxxxxxxxx----------9----9--9-9-9-9-----------9----9-9-9-9-9
4/---7---7-xxxxxxxxx---7-7-7----------------------7-7-7-------------------

คอร์ดเพลง คนที่ถูกรัก

ความคิดเห็นเกี่ยวกับคอร์ดนี้

เวอร์ชั่นทั้งหมดของคอร์ดเพลงนี้

คอร์ดเพลง คนที่ถูกรัก

200 | 38
โดย บอล
เมื่อ 9 ปีที่แล้ว

คอร์ดเพลง คนที่ถูกรัก

1 | 0
โดย เว็บมาสซาเตอร์
เมื่อ 3 ปีที่แล้ว

คอร์ดเพลง คนที่ถูกรัก

1 | 0
โดย Ball~RootSounD~
เมื่อ 13 ปีที่แล้ว

คอร์ดเพลง คนที่ถูกรัก

0 | 0
โดย นนท์โคราช non_d123@hotmail.com
เมื่อ 12 ปีที่แล้ว

คอร์ดเพลง คนที่ถูกรัก

0 | 0
โดย ก่อน
เมื่อ 12 ปีที่แล้ว

คอร์ดเพลง คนที่ถูกรัก

0 | 0
โดย Neospogthg
เมื่อ 13 ปีที่แล้ว

คอร์ดเพลง คนที่ถูกรัก

0 | 0
โดย ป๊อบ (ไม่มีวง)
เมื่อ 13 ปีที่แล้ว

คอร์ดเพลง คนที่ถูกรัก

0 | 0
โดย อ๋อง(เล่นเปงทุกอย่าง)
เมื่อ 13 ปีที่แล้ว

คอร์ดเพลง คนที่ถูกรัก

0 | 0
โดย Ball~RootSounD~
เมื่อ 13 ปีที่แล้ว

คอร์ดเพลง คนที่ถูกรัก

0 | 0
โดย loverxoxo
เมื่อ 13 ปีที่แล้ว

คอร์ดเพลง คนที่ถูกรัก

0 | 0
โดย เจ
เมื่อ 14 ปีที่แล้ว

คอร์ดเพลง คนที่ถูกรัก

0 | 0
โดย เจ
เมื่อ 14 ปีที่แล้ว

คอร์ดเพลง คนที่ถูกรัก

0 | 0
โดย ไก่
เมื่อ 14 ปีที่แล้ว

เนื้อเพลง คนที่ถูกรัก - บอดี้สแลม (BodySlam)

คนที่ถูกรัก odySlam

ใจ ฉันเคยถูกทิ้งเพียงลำพัง
รักใครมาแล้วตั้งกี่ครั้ง
ผิดหวังมากี่หน
เมื่อรักคนที่เขาไม่ได้รักเราก็ซ้ำใจอย่างนี้

* สุดท้ายต้องโดนเขามองผ่าน
สุดท้ายไม่มีใครต้องการ
ไม่รู้นานแค่ไหน
จะได้ใจจากใครสักที

** แค่อยากเป็นคนที่ถูกรัก
แค่อยากเป็นคนที่ถูกใครสักคนเข้าใจ
ช่วยเติมชีวิตที่ว่างเปล่า
ช่วยเอาความรักมาให้
มีใครบ้างไหมสักคน...

เธอ แล้วเธอกับฉันก็เจอกัน
ความหวังมีอีกครั้งในใจฉัน
เจ็บซ้ำมาอย่างนั้น
แต่ฉันยังขะขอลองอีกสักทีจะร้ายดีอย่างไร

สุดท้ายถ้าเธอนั้นมองผ่าน
ถ้าฉันไม่มีใครต้องการ
อย่างน้อยมันก็คุ้ม
จะทุ่มทีให้มันรู้ไป

(ซ้ำ **)

***แค่อยากเป็นคนที่เธอรัก
แค่อยากเป็นคนที่เธอนั้นจะมาเข้าใจ
แค่สบตาฉันแล้วช่วยตอบ
ว่าเธอจะรักกันได้
ได้อย่างที่ฉันรักเธอ

อยากเป็นคนที่ถูก รัก
อยากเป็นแค่ใครสักคนที่มีความหมาย
ช่วยเติมชีวิตที่ว่างเปล่า
ช่วยเอาความรักมาให้ ( ขอได้ไหม )
( ซ้ำ *** )

ช่วยบอกกับฉันได้ไหม ...เธอ....


ยังไม่ได้แกะอะไรเลยนะครับ ผมชอบเพลงนี้มากครับ เพราะกินใจอยากได้คนอื่นๆได้ฟังกันดู อิอิ ใครว่างๆก็แกะให้ด้วยละกันครับ

Cover เพลงคนที่ถูกรัก


ยังไม่มี Cover เพลงนี้

[ ช่วยกันแบ่งปันคลิปเพลงที่คุณเล่นเอง ]

ฟังเพลง คนที่ถูกรัก

งมงาย - บอดี้สแลม (Bodyslam)
เมื่อ 16 ปีที่แล้ว
ค้นพบคอร์ด 23 เวอร์ชั่น
แสงสุดท้าย - บอดี้สแลม (bodyslam)
เมื่อ 9 ปีที่แล้ว
ค้นพบคอร์ด 3 เวอร์ชั่น
ความรัก - บอดี้สแลม (Bodyslam)
เมื่อ 9 ปีที่แล้ว
ค้นพบคอร์ด 13 เวอร์ชั่น
เปราะบาง - บอดี้สแลม (bodyslam)
เมื่อ 9 ปีที่แล้ว
ค้นพบคอร์ด 5 เวอร์ชั่น
ปลายทาง - บอดี้สแลม (Bodyslam)
เมื่อ 15 ปีที่แล้ว
ค้นพบคอร์ด 27 เวอร์ชั่น
สักวันฉันจะดีพอ - บอดี้สแลม (Bodyslam)
เมื่อ 14 ปีที่แล้ว
ค้นพบคอร์ด 14 เวอร์ชั่น
อกหัก - บอดี้สแลม (Bodyslam)
เมื่อ 11 ปีที่แล้ว
ค้นพบคอร์ด 63 เวอร์ชั่น
ความรักทำให้คนตาบอด - บอดี้สแลม (Bodyslam)
เมื่อ 14 ปีที่แล้ว
ค้นพบคอร์ด 45 เวอร์ชั่น
ขอบฟ้า - บอดี้สแลม (Bodyslam)
เมื่อ 14 ปีที่แล้ว
ค้นพบคอร์ด 29 เวอร์ชั่น
คิดฮอด - บอดี้สแลม (bodyslam)
เมื่อ 9 ปีที่แล้ว
ค้นพบคอร์ด 1 เวอร์ชั่น
ความเชื่อ - บอดี้สแลม (Bodyslam)
เมื่อ 14 ปีที่แล้ว
ค้นพบคอร์ด 23 เวอร์ชั่น
พูดในใจ - บอดี้สแลม (Bodyslam)
เมื่อ 14 ปีที่แล้ว
ค้นพบคอร์ด 13 เวอร์ชั่น
อากาศ - บอดี้สแลม (Bodyslam)
เมื่อ 15 ปีที่แล้ว
ค้นพบคอร์ด 24 เวอร์ชั่น
คนที่ถูกรัก - บอดี้สแลม (BodySlam)
เมื่อ 14 ปีที่แล้ว
ค้นพบคอร์ด 16 เวอร์ชั่น
เจ็บจนวันนี้ - บอดี้สแลม (Bodyslam)
เมื่อ 14 ปีที่แล้ว
ค้นพบคอร์ด 23 เวอร์ชั่น
นาฬิกาตาย - บอดี้สแลม (Bodyslam)
เมื่อ 11 ปีที่แล้ว
ค้นพบคอร์ด 23 เวอร์ชั่น
ยาพิษ - บอดี้สแลม (BodySlam)
เมื่อ 11 ปีที่แล้ว
ค้นพบคอร์ด 28 เวอร์ชั่น
หวั่นไหว - บอดี้สแลม (Bodyslam)
เมื่อ 15 ปีที่แล้ว
ค้นพบคอร์ด 30 เวอร์ชั่น
ห้ามใจ - บอดี้สแลม (Bodyslam)
เมื่อ 14 ปีที่แล้ว
ค้นพบคอร์ด 24 เวอร์ชั่น
Sticker (สติ๊กเกอร์) - บอดี้สแลม (BODYSLAM)
เมื่อ 9 ปีที่แล้ว
ค้นพบคอร์ด 2 เวอร์ชั่น