คอร์ดเพลง คนหลงทาง - บิ๊กแอส (Big Ass)

Version 14
แกะโดย มือกีต้าร์ Pensive
เมื่อ 1 ธ.ค.2549,04:01น.
ดู 856 ครั้ง
เพลงนี้ก่อนจะเล่น ดรอปสายลงหนึ่งเสียงครึ่ง
สาย 1 C#
2 G#
3 E
4 B
5 F#
6 B คอร์ต Intro : D/Dmaj9/Bm/G
C#-|------------------------|-----------------------------
G#-|------------------------|----------------------------- D Dmaj9
E -|--7---9---11--14---|-----6----7----9---11----- E--l---7 E--l---6
B -|------------------------|----------------------------- B--l---7 B--l---7
F# -|--5---7---9---12----|----4----5----7----9------ F#-l---5 F#-l---4
B -|------------------------|----------------------------- B--l---0 B--l---0


C#-|------------------------------------------------------------
G#-|------------------------------------------------------------ Bm G
E -|--7---9---11--14--------12----14----15----14----- E--l---4-- E--l----7
B -|------------------------------------------------------------ B--l---4-- B--l----5
F# -|--5---7---9---12--------10----12----13----12------ F#-l---2-- F#-l----5
B -|------------------------------------------------------------ B--l---0-- B--l----5


C#-|------------------------|------------------------------------
G#-|------------------------|------------------------------------
E -|--7---9---11--14---|-----6----7----9---11------------
B -|------------------------|------------------------------------
F# -|--5---7---9---12----|----4----5----7----9-------------
B -|------------------------|------------------------------------


C#-|--------------------------------------------------------------
G#-|---------------------------------------------------------------
E -|--7---9---11--14--------12----11----9-----6-----5----
B -|---------------------------------------------------------------
F# -|--5---7---9---12--------10-----9-----7-----4------7---
B -|--------------------------------------------------------------
D Dmaj9
ศิลปิน : บิ๊กแอส (Big Ass) C#-l------5------- C#-l-----5----
เพลง : คนหลงทาง G#-l------5------- G#-l-----5----
ศิลปิน : Big Ass E--l-------7------ E--l-----6----
อัลบั้ม : Begin B--l-------7------ B--l-----7----
D/Dmaj9/Bm/G(2 times) F#-l------5------- F#-l-----5----
B--l--------------- B--l-----------
D Dmaj9
ขอบคุณอีกครั้ง ขอบคุณอีกที
G Gm
ขอบคุณในความหวังดี ที่มีให้คนที่มืดมัว
D Dmaj9
แต่มันคงไม่คุ้ม เข้าใจใช่ไหม
G Gm
ออกจากชีวิตฉันไป ไม่อยากให้เธอถลำตัว

Em A
* คนอย่างฉันไม่ดีอย่างใครใคร
D Dmaj9 Bm
หลงทางมาไกลจนน่ากลัว
G A
ทางเดินวันนี้ไม่มีสิทธิ์กลับตัว

D G
** อย่าฝากชีวิตดีดีไว้ที่ฉัน
A D
อย่าเอาความฝันของเธอมาเสี่ยงรู้ไหม
Bm Em
เก็บเอาชีวิตของเธอเดินออกไปให้ไกล
A D
ไม่อยากทำร้ายคนดีอย่างเธอ
Intru : D/Dmaj9/Bm/G

C#-|------------------------|------------------------------------
G#-|------------------------|------------------------------------
E -|--7---9---11--14---|-----6----7----9---11------------
B -|------------------------|------------------------------------
F# -|--5---7---9---12----|----4----5----7----9-------------
B -|------------------------|------------------------------------


C#-|---------------------------------------------------------------
G#-|---------------------------------------------------------------
E -|--7---9---11--14--------12----11----9-----6-----5----
B -|---------------------------------------------------------------
F# -|--5---7---9---12--------10-----9-----7-----4------7---
B -|---------------------------------------------------------------

D Dmaj9
มีแต่ความรัก มีแต่ความฝัน
G Gm
แต่มันคงไม่สำคัญ เมื่อมันไม่ใช่ชีวิตจริง

(ซ้ำ *,**)
D
Em G A D
ไม่ใช่ไม่รัก ไม่อยากทำร้ายคนดีอย่างเธอ

Intru : D




ทำมาอันที่แล้วลืมไปบางท่อน เลยมาเพิ่มเติมนิดหน่อย
ยังมีรายละเอียดอีก นิดหน่อยเดียว เดียวว่างจามาเพิ่มเติมให้อี
คอร์ดเพลง คนหลงทาง

ความคิดเห็นเกี่ยวกับคอร์ดนี้

เวอร์ชั่นทั้งหมดของคอร์ดเพลงนี้

คอร์ดเพลง คนหลงทาง

3 | 0
โดย geumatee
เมื่อ 12 ปีที่แล้ว

คอร์ดเพลง คนหลงทาง

2 | 0
โดย ham
เมื่อ 3 ปีที่แล้ว

คอร์ดเพลง คนหลงทาง

0 | 0
โดย nick
เมื่อ 10 ปีที่แล้ว

คอร์ดเพลง คนหลงทาง

0 | 0
โดย คนหลงทาง แท้ๆ
เมื่อ 11 ปีที่แล้ว

คอร์ดเพลง คนหลงทาง

0 | 0
โดย ปอน
เมื่อ 11 ปีที่แล้ว

คอร์ดเพลง คนหลงทาง

0 | 0
โดย มัจจุราด
เมื่อ 11 ปีที่แล้ว

คอร์ดเพลง คนหลงทาง

0 | 0
โดย กีตาร์รักเธอหมดใจ
เมื่อ 11 ปีที่แล้ว

คอร์ดเพลง คนหลงทาง

0 | 0
โดย ปูนปราจีน
เมื่อ 12 ปีที่แล้ว

คอร์ดเพลง คนหลงทาง

0 | 0
โดย เต้ย 402
เมื่อ 12 ปีที่แล้ว

คอร์ดเพลง คนหลงทาง

0 | 1
โดย DOP
เมื่อ 12 ปีที่แล้ว

คอร์ดเพลง คนหลงทาง

0 | 0
โดย แก็ปวังไพร
เมื่อ 12 ปีที่แล้ว

คอร์ดเพลง คนหลงทาง

0 | 0
โดย ...
เมื่อ 12 ปีที่แล้ว

คอร์ดเพลง คนหลงทาง

0 | 0
โดย ZaHaLa
เมื่อ 12 ปีที่แล้ว

คอร์ดเพลง คนหลงทาง

0 | 0
โดย ZaHaLa
เมื่อ 12 ปีที่แล้ว

คอร์ดเพลง คนหลงทาง

0 | 0
โดย สาดปีก หูบอด
เมื่อ 12 ปีที่แล้ว

คอร์ดเพลง คนหลงทาง

0 | 0
โดย ราม วง Supple
เมื่อ 12 ปีที่แล้ว

คอร์ดเพลง คนหลงทาง

0 | 0
โดย คนหัดเล่น
เมื่อ 12 ปีที่แล้ว

คอร์ดเพลง คนหลงทาง

0 | 0
โดย ไรเนีย
เมื่อ 12 ปีที่แล้ว

คอร์ดเพลง คนหลงทาง

0 | 0
โดย Mataru>>
เมื่อ 12 ปีที่แล้ว

คอร์ดเพลง คนหลงทาง

0 | 0
โดย guy0076
เมื่อ 12 ปีที่แล้ว

คอร์ดเพลง คนหลงทาง

0 | 0
โดย เด็กขอนแก่น
เมื่อ 12 ปีที่แล้ว

คอร์ดเพลง คนหลงทาง

0 | 0
โดย วัน
เมื่อ 12 ปีที่แล้ว

คอร์ดเพลง คนหลงทาง

0 | 0
โดย New
เมื่อ 12 ปีที่แล้ว

คอร์ดเพลง คนหลงทาง

0 | 0
โดย pop_Ng
เมื่อ 12 ปีที่แล้ว

คอร์ดเพลง คนหลงทาง

0 | 0
โดย Ray_Pam_love@hotmail.com
เมื่อ 12 ปีที่แล้ว

คอร์ดเพลง คนหลงทาง

0 | 0
โดย บอส
เมื่อ 12 ปีที่แล้ว

คอร์ดเพลง คนหลงทาง

0 | 0
โดย ArtTis
เมื่อ 12 ปีที่แล้ว

คอร์ดเพลง คนหลงทาง

0 | 0
โดย เสกโลโซ
เมื่อ 12 ปีที่แล้ว

คอร์ดเพลง คนหลงทาง

0 | 0
โดย Chan 444
เมื่อ 12 ปีที่แล้ว

คอร์ดเพลง คนหลงทาง

0 | 0
โดย หึหึ
เมื่อ 12 ปีที่แล้ว

คอร์ดเพลง คนหลงทาง

0 | 0
โดย ยิ่ง&เอ
เมื่อ 12 ปีที่แล้ว

คอร์ดเพลง คนหลงทาง

0 | 0
โดย ฃ.ขวด
เมื่อ 12 ปีที่แล้ว

คอร์ดเพลง คนหลงทาง

0 | 0
โดย เอ็ก โลโซ
เมื่อ 12 ปีที่แล้ว

คอร์ดเพลง คนหลงทาง

0 | 0
โดย ฃ.ขวด
เมื่อ 12 ปีที่แล้ว

คอร์ดเพลง คนหลงทาง

0 | 0
โดย t a m s a n s a i (ซาวด์ครีม)
เมื่อ 12 ปีที่แล้ว

คอร์ดเพลง คนหลงทาง

0 | 0
โดย vutkens คับ
เมื่อ 12 ปีที่แล้ว

คอร์ดเพลง คนหลงทาง

0 | 0
โดย vutkens คับ
เมื่อ 12 ปีที่แล้ว

คอร์ดเพลง คนหลงทาง

0 | 0
โดย แดงไบเล่ย์
เมื่อ 12 ปีที่แล้ว

คอร์ดเพลง คนหลงทาง

0 | 0
โดย โอ๋ (ao_feedback)
เมื่อ 12 ปีที่แล้ว

คอร์ดเพลง คนหลงทาง

0 | 0
โดย Sd!12t
เมื่อ 12 ปีที่แล้ว

คอร์ดเพลง คนหลงทาง

0 | 0
โดย Nighther
เมื่อ 12 ปีที่แล้ว

คอร์ดเพลง คนหลงทาง

0 | 0
โดย ของจริง
เมื่อ 12 ปีที่แล้ว

คอร์ดเพลง คนหลงทาง

0 | 0
โดย 555555
เมื่อ 12 ปีที่แล้ว

คอร์ดเพลง คนหลงทาง

0 | 0
โดย เรา
เมื่อ 12 ปีที่แล้ว

คอร์ดเพลง คนหลงทาง

0 | 0
โดย ตั้ม
เมื่อ 12 ปีที่แล้ว

คอร์ดเพลง คนหลงทาง

0 | 0
โดย อสุจิคุง น่าน
เมื่อ 12 ปีที่แล้ว

คอร์ดเพลง คนหลงทาง

0 | 0
โดย นักแกะมือใหม่
เมื่อ 12 ปีที่แล้ว

คอร์ดเพลง คนหลงทาง

0 | 0
โดย KrItzA
เมื่อ 12 ปีที่แล้ว

คอร์ดเพลง คนหลงทาง

0 | 0
โดย KrItzA
เมื่อ 12 ปีที่แล้ว

คอร์ดเพลง คนหลงทาง

0 | 0
โดย NLT
เมื่อ 12 ปีที่แล้ว

คอร์ดเพลง คนหลงทาง

0 | 0
โดย David2
เมื่อ 12 ปีที่แล้ว

คอร์ดเพลง คนหลงทาง

0 | 0
โดย David2
เมื่อ 12 ปีที่แล้ว

คอร์ดเพลง คนหลงทาง

0 | 0
โดย ปิง PING
เมื่อ 12 ปีที่แล้ว

คอร์ดเพลง คนหลงทาง

0 | 0
โดย คนเพิ่งหัดแกะ
เมื่อ 12 ปีที่แล้ว

คอร์ดเพลง คนหลงทาง

0 | 0
โดย หมูน้อย วง SNC Band
เมื่อ 12 ปีที่แล้ว

คอร์ดเพลง คนหลงทาง

0 | 0
โดย ลุจจิ
เมื่อ 12 ปีที่แล้ว

คอร์ดเพลง คนหลงทาง

0 | 0
โดย แบงค์ วง Zad
เมื่อ 12 ปีที่แล้ว

คอร์ดเพลง คนหลงทาง

0 | 0
โดย vammpire
เมื่อ 12 ปีที่แล้ว

คอร์ดเพลง คนหลงทาง

0 | 0
โดย vammpire
เมื่อ 12 ปีที่แล้ว

คอร์ดเพลง คนหลงทาง

0 | 0
โดย potae sunglasses
เมื่อ 12 ปีที่แล้ว

คอร์ดเพลง คนหลงทาง

0 | 0
โดย ไม่ปรากฎชื่อ
เมื่อ 12 ปีที่แล้ว

คอร์ดเพลง คนหลงทาง

0 | 0
โดย gaijr32
เมื่อ 12 ปีที่แล้ว

คอร์ดเพลง คนหลงทาง

0 | 0
โดย Emoticonz
เมื่อ 12 ปีที่แล้ว

คอร์ดเพลง คนหลงทาง

0 | 0
โดย +
เมื่อ 12 ปีที่แล้ว

คอร์ดเพลง คนหลงทาง

0 | 0
โดย ดู่ ครับ
เมื่อ 12 ปีที่แล้ว

คอร์ดเพลง คนหลงทาง

0 | 0
โดย +
เมื่อ 12 ปีที่แล้ว

คอร์ดเพลง คนหลงทาง

0 | 0
โดย มือกีต้าร์ Pensive
เมื่อ 12 ปีที่แล้ว

คอร์ดเพลง คนหลงทาง

0 | 0
โดย มือกีต้าร์ Pensive
เมื่อ 12 ปีที่แล้ว

คอร์ดเพลง คนหลงทาง

0 | 0
โดย มือกีต้าร์ Pensive
เมื่อ 12 ปีที่แล้ว

คอร์ดเพลง คนหลงทาง

0 | 0
โดย raakzai
เมื่อ 12 ปีที่แล้ว

คอร์ดเพลง คนหลงทาง

0 | 0
โดย ลุลจิ
เมื่อ 12 ปีที่แล้ว

คอร์ดเพลง คนหลงทาง

0 | 0
โดย T_Tminor22
เมื่อ 12 ปีที่แล้ว

คอร์ดเพลง คนหลงทาง

0 | 0
โดย pk13
เมื่อ 12 ปีที่แล้ว

คอร์ดเพลง คนหลงทาง

0 | 0
โดย ต้อม จักรกฤษ
เมื่อ 12 ปีที่แล้ว

คอร์ดเพลง คนหลงทาง

0 | 0
โดย โต
เมื่อ 12 ปีที่แล้ว

คอร์ดเพลง คนหลงทาง

0 | 0
โดย โต
เมื่อ 12 ปีที่แล้ว

คอร์ดเพลง คนหลงทาง

0 | 0
โดย บาส
เมื่อ 12 ปีที่แล้ว

คอร์ดเพลง คนหลงทาง

0 | 0
โดย บาส
เมื่อ 12 ปีที่แล้ว

คอร์ดเพลง คนหลงทาง

0 | 0
โดย บาส
เมื่อ 12 ปีที่แล้ว

คอร์ดเพลง คนหลงทาง

0 | 0
โดย มือ ใหม่ หัด เล่น กลอง
เมื่อ 12 ปีที่แล้ว

เนื้อเพลง คนหลงทาง - บิ๊กแอส (Big Ass)


เพลง : คนหลงทาง

ศิลปิน : g

อัลบั้ม : egin


ขอบคุณอีกครั้ง ขอบคุณอีกที

ขอบคุณในความหวังดี ที่มีให้คนที่มืดมัว

แต่มันคงไม่คุ้ม เข้าใจใช่ไหม

ออกจากชีวิตฉันไป ไม่อยากให้เธอถลำตัว


* คนอย่างฉันไม่ดีอย่างใครใคร

หลงทางมาไกลจนน่ากลัว

ทางเดินวันนี้ไม่มีสิทธิ์กลับตัว


** อย่าฝากชีวิตดีดีไว้ที่ฉัน

อย่าเอาความฝันของเธอมาเสี่ยงรู้ไหม

เก็บเอาชีวิตของเธอเดินออกไปให้ไกล

ไม่อยากทำร้ายคนดีอย่างเธอ


มีแต่ความรัก มีแต่ความฝัน

นั่นมันคงไม่สำคัญ เมื่อมันไม่ใช่ชีวิตจริง


(ซ้ำ *,**)


ไม่ใช่ไม่รักกก ไม่อยากทำร้ายคนดีอย่างเธอ


Cover เพลงคนหลงทาง


ยังไม่มี Cover เพลงนี้

[ ช่วยกันแบ่งปันคลิปเพลงที่คุณเล่นเอง ]

ฟังเพลง คนหลงทาง

ทุ้มอยู่ในใจ - บิ๊กแอส (Big Ass)
เมื่อ 8 ปีที่แล้ว
ยังไม่มีคอร์ด
พรหมลิขิต - บิ๊กแอส (Big Ass)
เมื่อ 12 ปีที่แล้ว
ค้นพบคอร์ด 82 เวอร์ชั่น
ลมเปลี่ยนทิศ - บิ๊กแอส (Big ass)
เมื่อ 6 ปีที่แล้ว
ค้นพบคอร์ด 4 เวอร์ชั่น
เล่นของสูง - บิ๊กแอส (Big Ass)
เมื่อ 14 ปีที่แล้ว
ค้นพบคอร์ด 40 เวอร์ชั่น
ทิ้งไว้ในใจ - บิ๊กแอส (Big Ass)
เมื่อ 16 ปีที่แล้ว
ค้นพบคอร์ด 22 เวอร์ชั่น
คนหลงทาง - บิ๊กแอส (Big Ass)
เมื่อ 12 ปีที่แล้ว
ค้นพบคอร์ด 84 เวอร์ชั่น
อย่างน้อย - บิ๊กแอส(ost.ปิดเทอมใหญ่ หัวใจว้าวุ่น)
เมื่อ 11 ปีที่แล้ว
ค้นพบคอร์ด 26 เวอร์ชั่น
ทางผ่าน - บิ๊กแอส (Big Ass)
เมื่อ 15 ปีที่แล้ว
ค้นพบคอร์ด 11 เวอร์ชั่น
ก่อนตาย - บิ๊กแอส (Big Ass)
เมื่อ 15 ปีที่แล้ว
ค้นพบคอร์ด 22 เวอร์ชั่น
เรา - บิ๊กแอส บอดี้สแลม
เมื่อ 13 ปีที่แล้ว
ค้นพบคอร์ด 23 เวอร์ชั่น
ข้าน้อยสมควรตาย - บิ๊กแอส (Big Ass)
เมื่อ 12 ปีที่แล้ว
ค้นพบคอร์ด 27 เวอร์ชั่น
หัวใจ - บิ๊กแอส (Big Ass)
เมื่อ 10 ปีที่แล้ว
ค้นพบคอร์ด 2 เวอร์ชั่น
ส่งท้ายคนเก่าต้อนรับคนใหม่ - บิ๊กแอส (Big Ass)
เมื่อ 10 ปีที่แล้ว
ยังไม่มีคอร์ด
สิ่งกีดขวาง - บิ๊กแอส (Big Ass)
เมื่อ 12 ปีที่แล้ว
ค้นพบคอร์ด 27 เวอร์ชั่น
พรมลิขิต - บิ๊กแอส
เมื่อ 12 ปีที่แล้ว
ค้นพบคอร์ด 25 เวอร์ชั่น
น้ำตา(Big Ass) - บิ๊กแอส (Big Ass)
เมื่อ 14 ปีที่แล้ว
ค้นพบคอร์ด 9 เวอร์ชั่น
บันทึกหน้าสุดท้าย - บิ๊กแอส (Big Ass)
เมื่อ 9 ปีที่แล้ว
ยังไม่มีคอร์ด
ฝุ่น - บิ๊กแอส (big Ass)
เมื่อ 9 ปีที่แล้ว
ค้นพบคอร์ด 7 เวอร์ชั่น
ดีแต่ปาก - บิ๊กแอส (Big Ass)
เมื่อ 14 ปีที่แล้ว
ค้นพบคอร์ด 22 เวอร์ชั่น
เหตุผลง่ายๆ - บิ๊กแอส (BigAss)
เมื่อ 16 ปีที่แล้ว
ค้นพบคอร์ด 7 เวอร์ชั่น