คอร์ดเพลง คำขอสุดท้าย - ดา เอ็นโดรฟิน (Endorphine)

Version 7
แกะโดย BallZeE วงน้ำตาลปีบ งับ
เมื่อ 22 มี.ค.2550,14:00น.
ดู 461 ครั้ง

InTro:
ของผมจะเล่นเป็นสเกลน้ะครับ โดย
จับ Am F Am
e----------------------------------------------------------------------------------------------------------
B-----------1-0---------0-1-------3---------------1--0--------0--1-------------------1--0---------
G-------------------2-----------2------2--------------------2------------------------2----------2-2--
D------2----------------------------------------------------------------3----------2-------------------
A--0-------------------------------------------3-------------------------------0-----------------------
E---------------------------------------------------------------------------------------------------------

Solo น้ะจร้ะ
ผมบอกก่อนเรยน้ะครับ ที่ผมแกะอ้ะครับ มานเป็น การเล่นแบบตามสเกลที่ผมว่าง่ายมากๆอ้ะครับ
ถูกไม่ถูกก็ลองดูกันน้ะจร้ะ

e---------------------------------------------------------------------------------------------
B-------------------0/^3--^4---4---3---1--------------6--5--4--6--5--3--5--4--1--
G--^2---^4/^5-----------------------------4---2--1-------------------------------------
D---------------------------------------------------------------------------------------------
A---------------------------------------------------------------------------------------------
E---------------------------------------------------------------------------------------------

^= ดันสายน้ะครับ


ส่วน outro ก้อคล้ายๆ Intro น้ะ แต่แค่เปลี่ยน เสียงนิดหน่อยน้ะจร้ะ

ถ้าใครอยากแนะนำกับผม หรือ ขอคำแนะนำจากผมก้อแอดมาที่นี้น้ะ
komada_scool_today_nlimithotmail.com
คอร์ดเพลง คำขอสุดท้าย

ความคิดเห็นเกี่ยวกับคอร์ดนี้

เวอร์ชั่นทั้งหมดของคอร์ดเพลงนี้

คอร์ดเพลง คำขอสุดท้าย

0 | 0
โดย Hs.Pae
เมื่อ 11 ปีที่แล้ว

คอร์ดเพลง คำขอสุดท้าย

0 | 0
โดย คนโคราช
เมื่อ 11 ปีที่แล้ว

คอร์ดเพลง คำขอสุดท้าย

0 | 0
โดย หวังดี
เมื่อ 12 ปีที่แล้ว

คอร์ดเพลง คำขอสุดท้าย

0 | 0
โดย ยิ่ง & เอ
เมื่อ 12 ปีที่แล้ว

คอร์ดเพลง คำขอสุดท้าย

0 | 0
โดย Sorn
เมื่อ 12 ปีที่แล้ว

คอร์ดเพลง คำขอสุดท้าย

0 | 0
โดย BallZeE วงน้ำตาลปีบ งับ
เมื่อ 12 ปีที่แล้ว

คอร์ดเพลง คำขอสุดท้าย

0 | 0
โดย Mr.Cranky
เมื่อ 12 ปีที่แล้ว

คอร์ดเพลง คำขอสุดท้าย

0 | 0
โดย บุ้ง ม.กท
เมื่อ 12 ปีที่แล้ว

คอร์ดเพลง คำขอสุดท้าย

0 | 0
โดย vipermans
เมื่อ 12 ปีที่แล้ว

คอร์ดเพลง คำขอสุดท้าย

0 | 0
โดย คนรักของเพนกวิน
เมื่อ 12 ปีที่แล้ว

คอร์ดเพลง คำขอสุดท้าย

0 | 0
โดย Mr.Cranky
เมื่อ 12 ปีที่แล้ว

คอร์ดเพลง คำขอสุดท้าย

0 | 0
โดย tui
เมื่อ 12 ปีที่แล้ว

เนื้อเพลง คำขอสุดท้าย - ดา เอ็นโดรฟิน (Endorphine)

คำขอสุดท้าย ดา เอ็นโดรฟิน (ndorphine)

ฉันไม่อยากเกลียดเธอ บอกไว้เลยว่ายังมีใจ
และยังไม่ลืมเรื่องดีดี
ฉันไม่อยากรอดู ความรักเราต้องโดนย่ำยี
และต้องแหลกคามือของเรา

*ทำทุกอย่างทุกทาง เพื่อจะยังได้ซื้อเวลา
จนสุดท้ายต้องยอม

**ปล่อยมือฉันซะเถอะ มันถึงเวลา เรานั้นต้องรับความจริง
ปล่อยมือแล้วอำลาอย่ายื้อให้เจ็บกว่านี้
ปล่อยความรักให้อยู่ในที่ดีดี ลงท้ายด้วยความเข้าใจ
ครั้งสุดท้ายที่อยากขอเธอ


เมื่อเราต่างกันไกล ไม่ใช่ใครที่ผิดสักคน
ขอเพียงอย่าทนฝืนกันไป
ฉันไม่อยากรอวันที่สองเราต่างทำร้ายใจ
และต้องจบลงอย่างร้าวราน


*,**

solo

**

Cover เพลงคำขอสุดท้าย


ยังไม่มี Cover เพลงนี้

[ ช่วยกันแบ่งปันคลิปเพลงที่คุณเล่นเอง ]

ฟังเพลง คำขอสุดท้าย

คืนข้ามปี - ดา เอ็นโดรฟิน (Endorphine)
เมื่อ 12 ปีที่แล้ว
ค้นพบคอร์ด 25 เวอร์ชั่น
ไม่รู้จักฉัน ไม่รู้จักเธอ - ป๊อบ แคลอลี่ บลา บลา & ดา เอ็นโดรฟิน
เมื่อ 12 ปีที่แล้ว
ค้นพบคอร์ด 14 เวอร์ชั่น
ภาพลวงตา - ดา เอ็นโดรฟิน (Endorphine)
เมื่อ 12 ปีที่แล้ว
ค้นพบคอร์ด 27 เวอร์ชั่น
ได้ยินไหม - ดา เอ็นโดรฟิน (Endorphine)
เมื่อ 11 ปีที่แล้ว
ค้นพบคอร์ด 20 เวอร์ชั่น
คำขอสุดท้าย - ดา เอ็นโดรฟิน (Endorphine)
เมื่อ 12 ปีที่แล้ว
ค้นพบคอร์ด 13 เวอร์ชั่น
ครั้งหนึ่งเราเคยรักกัน - ดา เอ็นโดรฟิน
เมื่อ 10 ปีที่แล้ว
ยังไม่มีคอร์ด
อยากได้ยินว่ารักกัน - ดา เอ็นโดรฟิน (Endorphine)
เมื่อ 9 ปีที่แล้ว
ค้นพบคอร์ด 2 เวอร์ชั่น
ที่เห็นและเป็นอยู่ - ดา เอ็นโดรฟิน (Endorphine)
เมื่อ 12 ปีที่แล้ว
ค้นพบคอร์ด 2 เวอร์ชั่น
จุดเริ่มต้นของจุดจบ - ดา เอ็นโดรฟิน (endorphine)
เมื่อ 10 ปีที่แล้ว
ค้นพบคอร์ด 4 เวอร์ชั่น
ไม่ใครก็ใคร - ดา เอ็นโดรฟิน (Endorphine)
เมื่อ 9 ปีที่แล้ว
ยังไม่มีคอร์ด
หากไม่มีวันพรุ่งนี้ - ดา เอ็นโดรฟิน (Endorphine)
เมื่อ 9 ปีที่แล้ว
ยังไม่มีคอร์ด
องศาที่แตกต่าง - ดา เอ็นโดรฟิน (Endorphine)
เมื่อ 10 ปีที่แล้ว
ค้นพบคอร์ด 1 เวอร์ชั่น
อย่าบอกว่าไม่มีใคร - ดา เอ็นโดรฟิน (Endorphine)
เมื่อ 11 ปีที่แล้ว
ค้นพบคอร์ด 4 เวอร์ชั่น
ไม่ต้องรู้ว่าเราคบกันแบบไหน (Update) - ดา เอ็นโดรฟิน
เมื่อ 11 ปีที่แล้ว
ค้นพบคอร์ด 3 เวอร์ชั่น
แสบ - ดา เอ็นโดรฟิน
เมื่อ 10 ปีที่แล้ว
ยังไม่มีคอร์ด
วันใหม่ - ดา เอ็นโดรฟิน (Endorphine)
เมื่อ 11 ปีที่แล้ว
ค้นพบคอร์ด 2 เวอร์ชั่น
คำท้า - ดา เอ็นโดรฟิน (Endorphine)
เมื่อ 10 ปีที่แล้ว
ค้นพบคอร์ด 2 เวอร์ชั่น
แล้วเราจะพบกันใหม่ - ดา เอ็นโดรฟิน (Endorphine)
เมื่อ 12 ปีที่แล้ว
ค้นพบคอร์ด 1 เวอร์ชั่น
เรื่องน่าเบื่อ - ดา เอ็นโดรฟิน (Endorphine)
เมื่อ 10 ปีที่แล้ว
ยังไม่มีคอร์ด
สิ่งที่ฉันเรียนรู้ - ดา เอ็นโดรฟิน (Endorphine)
เมื่อ 12 ปีที่แล้ว
ค้นพบคอร์ด 2 เวอร์ชั่น