คอร์ดเพลง คำตอบของหัวใจ - โปเตโต้ (Potato)

Version 11
แกะโดย สาวเมืองแพร่
เมื่อ 12 ต.ค.2550,13:00น.
ดู 543 ครั้ง


Intro G

G Bm
ไม่รู้ว่าทุกอย่างระหว่างเราสองคน เปลี่ยนไปเมื่อไหร่
D C
แต่รู้ว่ากลายเป็นความสุขที่เข้ามา
Am D
อยู่แทนความเหงาข้างในหัวใจ
G Bm
* เมื่อก่อนฉันยังเคยค้นหาคำตอบ
Am D
ว่าจะมีบางคนเกิดมาเพื่อฉันมั๊ย
Am D G
แล้วก้อได้เข้าใจวันนี้เมื่อฉันมีเธอ
C Bm Am G
** เสียงหัวใจมันดังบอกฉันว่าเธอคือคนนั้นที่เคยตามหา
C Bm Am
รักที่ฉันมีที่ทนเก็บไว้มานานเลยรู้ว่า
C G
วันนี้เจ้าของคือใคร

ดนตรี G
G Bm
ฉันพร้อมแลกทุกอย่างเพื่อไม่ทำให้เราห่างกันแสนใกล
D C
ชีวิตทุกวันที่เหลืออยู่คงไร้ค่า
Am D
ถ้าหากมีใครคนนึงแยกไป

ซ้ำ *,**

หลังจากที่ร้องว่า วันนี้ว่าฉันมีเธอ
1---------------------------------
2 15 --------------------------- 2 รอบ
3------------15-------13-------

หลังจากที่ร้องว่า ถ้าหากมีใครคนนึงแยกไป
1--------------------------------
2 7---9---7--------------------
3---------------7----------------
ผมเพิ่งแกะครั้งแรก นะครับ ผิด ก้อ ช่วยแก้ไขด้วยนะครับ
ส่วนท่อนที่แกะไม่ได้ ก้อม่ายเอามาลงนะ

อันนี้แกะเองนาอาจจามั่วตอนท้ายเพราะฟังไม่ออกห้อเสียงพี่ปั้ปร้องอ่ะแหละ

SOLO คับ

2/------------------------------------------------------------------------------------------------------------
3/--13-13-13-p12-12-13--------------------------------------------------------------------------
4/-----------------------------13--11-11-11-p10-11h13----------------------------------------------
5/----------------------------------------------------------------11--11-11-11-s-9-9----------
6/-----------------------------------------------------------------------------------------

2/-----------------------------------------------------------------------------------------------------------
3/----------------------------------------------------------------------------------------------------------
4/--------------10------------11------------10------------11-10----10-11-13-11-11-10-11-----
5/-------9-11---------9-11----------9-11---------9-11---------13--------------------------------
6/---11------------11------------11------------11---------------------------------

2/---------------------------------------------------------------16-16-16-14-14-13-14-13-14-19~
3/13-12-10-12--15-15-15-13-13-12-13-12-----17-------------------------------------------
4/-------------------------------------------------------13------------
5/----------------------------------------------------------------
6/---------------------------------------------------------------------

2/--19~-19~-19~-18-16-14-16--16-16-19~-19~-18-16-14-16-16-14-14-13-14-13-
3/-------------------------------------------------
4/-----------------------------------------------------
5/---------------------------------------------------
6/------------------------------------------------

2/--14-16-19-21-19-18-19~-19~-18-------------------------------------------
3/---------------------------------------------------
4/---------------------------------------------------
5/-----------------------------------------------------------
6/-----------------------------------------------------------

ต้องขอโทษด้วยที่เขียนแท็ปตอนท้ายใช้สาย 2 คือ สาย 1 มันขาดง่ะ งัยก้อปรับใช้


คอร์ดเพลง คำตอบของหัวใจ

ความคิดเห็นเกี่ยวกับคอร์ดนี้

เวอร์ชั่นทั้งหมดของคอร์ดเพลงนี้

คอร์ดเพลง คำตอบของหัวใจ

67 | 17
โดย โบ๊ท
เมื่อ 11 ปีที่แล้ว

คอร์ดเพลง คำตอบของหัวใจ

0 | 0
โดย Pond Sitthipon
เมื่อ 3 ปีที่แล้ว

คอร์ดเพลง คำตอบของหัวใจ

0 | 0
โดย pop
เมื่อ 11 ปีที่แล้ว

คอร์ดเพลง คำตอบของหัวใจ

0 | 0
โดย YENFONG.38 แก้ท่อน SOLO ให้
เมื่อ 11 ปีที่แล้ว

คอร์ดเพลง คำตอบของหัวใจ

0 | 0
โดย aluvk
เมื่อ 11 ปีที่แล้ว

คอร์ดเพลง คำตอบของหัวใจ

0 | 0
โดย 0845793254 ค่ะ
เมื่อ 11 ปีที่แล้ว

คอร์ดเพลง คำตอบของหัวใจ

0 | 0
โดย คนดัง 0851247956 ค่ะ
เมื่อ 11 ปีที่แล้ว

คอร์ดเพลง คำตอบของหัวใจ

0 | 0
โดย สาวเมืองแพร่
เมื่อ 11 ปีที่แล้ว

คอร์ดเพลง คำตอบของหัวใจ

0 | 0
โดย เอยค้าบ
เมื่อ 11 ปีที่แล้ว

คอร์ดเพลง คำตอบของหัวใจ

0 | 0
โดย รุต [วง Nerver-Die]
เมื่อ 11 ปีที่แล้ว

คอร์ดเพลง คำตอบของหัวใจ

0 | 0
โดย pop
เมื่อ 11 ปีที่แล้ว

คอร์ดเพลง คำตอบของหัวใจ

0 | 0
โดย เบิ้ม..1/20.sbac..เราจัดให้เอาไปเลยพี่น้องคับจุ๊บๆ
เมื่อ 11 ปีที่แล้ว

คอร์ดเพลง คำตอบของหัวใจ

0 | 0
โดย NoNaMe
เมื่อ 11 ปีที่แล้ว

คอร์ดเพลง คำตอบของหัวใจ

0 | 0
โดย ไร้นาม
เมื่อ 11 ปีที่แล้ว

คอร์ดเพลง คำตอบของหัวใจ

0 | 0
โดย Princeton
เมื่อ 11 ปีที่แล้ว

คอร์ดเพลง คำตอบของหัวใจ

0 | 0
โดย สุขา อยู่หนใด
เมื่อ 11 ปีที่แล้ว

คอร์ดเพลง คำตอบของหัวใจ

0 | 0
โดย dd
เมื่อ 11 ปีที่แล้ว

คอร์ดเพลง คำตอบของหัวใจ

0 | 0
โดย PC
เมื่อ 11 ปีที่แล้ว

เนื้อเพลง คำตอบของหัวใจ - โปเตโต้ (Potato)


ไม่รู้ว่าทุกอย่างระหว่างเราสองคน เปลี่ยนไปเมื่อไหร่


แต่รู้ว่ากลายเป็นความสุขที่เข้ามา


อยู่แทนความเหงาข้างในหัวใจ



* เมื่อก่อนฉันยังเคยคน้นหาคำตอบ


ว่าจะมีบางคนเกิดมาเพื่อฉันมั๊ย


แล้วก้อได้เข้าใจวันนี้เมื่อฉันมีเธอ


** เสียงหัวใจมันดังบอกฉันว่าเธอคือคนนั้นที่เคยตามหา


รักที่ฉันมีที่ทนเก็บไว้มานานเลยรู้ว่า


วันนี้เจ้าของคือใคร


ฉันพร้อมแลกทุกอย่างเพื่อไม่ทำให้เราห่างกันแสนใกล


ชีวิตทุกวันที่เหลืออยู่คงไร้ค่า


ถ้าหากมีใครคนนึงแยกไป


ซ้ำ *,**



Cover เพลงคำตอบของหัวใจ


ยังไม่มี Cover เพลงนี้

[ ช่วยกันแบ่งปันคลิปเพลงที่คุณเล่นเอง ]

ฟังเพลง คำตอบของหัวใจ

เธอยัง - โปเตโต้ (Potato)
เมื่อ 8 ปีที่แล้ว
ค้นพบคอร์ด 7 เวอร์ชั่น
แพ้ใจ - โปเตโต้ (POTATO)
เมื่อ 7 ปีที่แล้ว
ค้นพบคอร์ด 4 เวอร์ชั่น
แชร์ (Share) - โปเตโต้ (Potato)
เมื่อ 10 ปีที่แล้ว
ค้นพบคอร์ด 1 เวอร์ชั่น
ไม่ให้เธอไป - โปเตโต้ (Potato)
เมื่อ 15 ปีที่แล้ว
ค้นพบคอร์ด 28 เวอร์ชั่น
ปากดี - โปเตโต้ (Potato)
เมื่อ 13 ปีที่แล้ว
ค้นพบคอร์ด 41 เวอร์ชั่น
รักเธอไปทุกวัน - โปเตโต้ (Potato)
เมื่อ 11 ปีที่แล้ว
ค้นพบคอร์ด 13 เวอร์ชั่น
ยิ่งใกล้ยิ่งเจ็บ - โปเตโต้ (Potato)
เมื่อ 14 ปีที่แล้ว
ค้นพบคอร์ด 6 เวอร์ชั่น
ขอบคุณที่รักกัน - โปเตโต้ (Potato)
เมื่อ 13 ปีที่แล้ว
ค้นพบคอร์ด 26 เวอร์ชั่น
ไม่รู้จะอธิบายยังไง - โปเตโต้ (POtATo)
เมื่อ 8 ปีที่แล้ว
ค้นพบคอร์ด 1 เวอร์ชั่น
อารมณ์สีเทา - โปเตโต้(Potato)
เมื่อ 11 ปีที่แล้ว
ค้นพบคอร์ด 10 เวอร์ชั่น
หวังดีเสมอ - โปเตโต้ (Potato)
เมื่อ 13 ปีที่แล้ว
ค้นพบคอร์ด 10 เวอร์ชั่น
ภาษากาย - โปเตโต้ (Potato)
เมื่อ 13 ปีที่แล้ว
ค้นพบคอร์ด 17 เวอร์ชั่น
กล้าพอไหม - โปเตโต้ (Potato)
เมื่อ 2020 ปีที่แล้ว
ค้นพบคอร์ด 20 เวอร์ชั่น
เพียงพอ - โปเตโต้ (Potato)
เมื่อ 12 ปีที่แล้ว
ค้นพบคอร์ด 34 เวอร์ชั่น
ขอบคุณที่รักกัน(Acoustic) - โปเตโต้ (Potato)
เมื่อ 13 ปีที่แล้ว
ค้นพบคอร์ด 17 เวอร์ชั่น
นี่แหละความเสียใจ - โปเตโต้ (Potato)
เมื่อ 12 ปีที่แล้ว
ค้นพบคอร์ด 39 เวอร์ชั่น
ชีวิตที่ขาดเธอ - โปเตโต้(potato)
เมื่อ 12 ปีที่แล้ว
ค้นพบคอร์ด 10 เวอร์ชั่น
ฉันคิดถึงเธอ - โปเตโต้ (POTATO)
เมื่อ 8 ปีที่แล้ว
ค้นพบคอร์ด 1 เวอร์ชั่น
คำตอบของหัวใจ - โปเตโต้ (Potato)
เมื่อ 11 ปีที่แล้ว
ค้นพบคอร์ด 21 เวอร์ชั่น
ทนพิษบาดแผลไม่ไหว - โปเตโต้ (Potato)
เมื่อ 10 ปีที่แล้ว
ค้นพบคอร์ด 6 เวอร์ชั่น