คอร์ดเพลง คำตอบของหัวใจ - โปเตโต้ (Potato)

Version 14
แกะโดย aluvk
เมื่อ 18 ต.ค.2550,22:19น.
ดู 583 ครั้ง


solo นะ
2)--8-8-8-7-7-8---------------------------------------------
3)-------------------7--5-5-5-4-5-7------------------------
4)----------------------------------------5--5-5-5-3-3-3---

2)-----------2>3----------3---------4----------5-4-2-4-5-7--
3)--0-2-3--------3-0-2----0-2-3----0-2-3-------------------
4)-------------------------------------------------------------------

2)----------------8-7-5-7----10-10-10-8-7-8-7---12---
3)--5-5-5-4-5------------7--------------------------7-------
4)----------------------------------------------------------------

2)--15-15-15-13-12-13-12-13-18--18>20*3-------------------20-18>20---
3)---------------------------------------------------------17-19-17-19------------------
4)--------------------------------------------------------------------------------------------

2)------------------------------------------------20-20-19-17-19-17>19-17------
3)--17-19-19-17-17-16-17-16-17-19--------------------------------------------
4)-------------------------------------------------------------------------------------------

ก่อนจบ
2)-------------------------13-15*3-15>17-----13>15-12-13-12----
3)--14>16*4---------------------------------12---------------------------
4)---------------12-14-------------------------------------------------------

1)--14-15-14------14-----------------17>19-17------15----
2)----------------17------17>19-17-----------------17---------

2)--13-12-13---------------------
3)----------------12-11-12-------
4)------------------------------12--

> = ดันสาย
*3 = ดีด 3 ครั้ง

สงสัย add มาถาม จะเล่นให้ฟังค่ะ
คอร์ดเพลง คำตอบของหัวใจ

ความคิดเห็นเกี่ยวกับคอร์ดนี้

เวอร์ชั่นทั้งหมดของคอร์ดเพลงนี้

คอร์ดเพลง คำตอบของหัวใจ

67 | 17
โดย โบ๊ท
เมื่อ 11 ปีที่แล้ว

คอร์ดเพลง คำตอบของหัวใจ

0 | 0
โดย Pond Sitthipon
เมื่อ 3 ปีที่แล้ว

คอร์ดเพลง คำตอบของหัวใจ

0 | 0
โดย pop
เมื่อ 11 ปีที่แล้ว

คอร์ดเพลง คำตอบของหัวใจ

0 | 0
โดย YENFONG.38 แก้ท่อน SOLO ให้
เมื่อ 11 ปีที่แล้ว

คอร์ดเพลง คำตอบของหัวใจ

0 | 0
โดย aluvk
เมื่อ 11 ปีที่แล้ว

คอร์ดเพลง คำตอบของหัวใจ

0 | 0
โดย 0845793254 ค่ะ
เมื่อ 11 ปีที่แล้ว

คอร์ดเพลง คำตอบของหัวใจ

0 | 0
โดย คนดัง 0851247956 ค่ะ
เมื่อ 11 ปีที่แล้ว

คอร์ดเพลง คำตอบของหัวใจ

0 | 0
โดย สาวเมืองแพร่
เมื่อ 11 ปีที่แล้ว

คอร์ดเพลง คำตอบของหัวใจ

0 | 0
โดย เอยค้าบ
เมื่อ 11 ปีที่แล้ว

คอร์ดเพลง คำตอบของหัวใจ

0 | 0
โดย รุต [วง Nerver-Die]
เมื่อ 11 ปีที่แล้ว

คอร์ดเพลง คำตอบของหัวใจ

0 | 0
โดย pop
เมื่อ 11 ปีที่แล้ว

คอร์ดเพลง คำตอบของหัวใจ

0 | 0
โดย เบิ้ม..1/20.sbac..เราจัดให้เอาไปเลยพี่น้องคับจุ๊บๆ
เมื่อ 11 ปีที่แล้ว

คอร์ดเพลง คำตอบของหัวใจ

0 | 0
โดย NoNaMe
เมื่อ 11 ปีที่แล้ว

คอร์ดเพลง คำตอบของหัวใจ

0 | 0
โดย ไร้นาม
เมื่อ 11 ปีที่แล้ว

คอร์ดเพลง คำตอบของหัวใจ

0 | 0
โดย Princeton
เมื่อ 11 ปีที่แล้ว

คอร์ดเพลง คำตอบของหัวใจ

0 | 0
โดย สุขา อยู่หนใด
เมื่อ 11 ปีที่แล้ว

คอร์ดเพลง คำตอบของหัวใจ

0 | 0
โดย dd
เมื่อ 11 ปีที่แล้ว

คอร์ดเพลง คำตอบของหัวใจ

0 | 0
โดย PC
เมื่อ 11 ปีที่แล้ว

เนื้อเพลง คำตอบของหัวใจ - โปเตโต้ (Potato)


ไม่รู้ว่าทุกอย่างระหว่างเราสองคน เปลี่ยนไปเมื่อไหร่


แต่รู้ว่ากลายเป็นความสุขที่เข้ามา


อยู่แทนความเหงาข้างในหัวใจ



* เมื่อก่อนฉันยังเคยคน้นหาคำตอบ


ว่าจะมีบางคนเกิดมาเพื่อฉันมั๊ย


แล้วก้อได้เข้าใจวันนี้เมื่อฉันมีเธอ


** เสียงหัวใจมันดังบอกฉันว่าเธอคือคนนั้นที่เคยตามหา


รักที่ฉันมีที่ทนเก็บไว้มานานเลยรู้ว่า


วันนี้เจ้าของคือใคร


ฉันพร้อมแลกทุกอย่างเพื่อไม่ทำให้เราห่างกันแสนใกล


ชีวิตทุกวันที่เหลืออยู่คงไร้ค่า


ถ้าหากมีใครคนนึงแยกไป


ซ้ำ *,**



Cover เพลงคำตอบของหัวใจ


ยังไม่มี Cover เพลงนี้

[ ช่วยกันแบ่งปันคลิปเพลงที่คุณเล่นเอง ]

ฟังเพลง คำตอบของหัวใจ

เธอยัง - โปเตโต้ (Potato)
เมื่อ 8 ปีที่แล้ว
ค้นพบคอร์ด 7 เวอร์ชั่น
แพ้ใจ - โปเตโต้ (POTATO)
เมื่อ 7 ปีที่แล้ว
ค้นพบคอร์ด 4 เวอร์ชั่น
แชร์ (Share) - โปเตโต้ (Potato)
เมื่อ 10 ปีที่แล้ว
ค้นพบคอร์ด 1 เวอร์ชั่น
ไม่ให้เธอไป - โปเตโต้ (Potato)
เมื่อ 15 ปีที่แล้ว
ค้นพบคอร์ด 28 เวอร์ชั่น
ปากดี - โปเตโต้ (Potato)
เมื่อ 13 ปีที่แล้ว
ค้นพบคอร์ด 41 เวอร์ชั่น
รักเธอไปทุกวัน - โปเตโต้ (Potato)
เมื่อ 11 ปีที่แล้ว
ค้นพบคอร์ด 13 เวอร์ชั่น
ยิ่งใกล้ยิ่งเจ็บ - โปเตโต้ (Potato)
เมื่อ 14 ปีที่แล้ว
ค้นพบคอร์ด 6 เวอร์ชั่น
ขอบคุณที่รักกัน - โปเตโต้ (Potato)
เมื่อ 13 ปีที่แล้ว
ค้นพบคอร์ด 26 เวอร์ชั่น
ไม่รู้จะอธิบายยังไง - โปเตโต้ (POtATo)
เมื่อ 8 ปีที่แล้ว
ค้นพบคอร์ด 1 เวอร์ชั่น
อารมณ์สีเทา - โปเตโต้(Potato)
เมื่อ 11 ปีที่แล้ว
ค้นพบคอร์ด 10 เวอร์ชั่น
หวังดีเสมอ - โปเตโต้ (Potato)
เมื่อ 13 ปีที่แล้ว
ค้นพบคอร์ด 10 เวอร์ชั่น
ภาษากาย - โปเตโต้ (Potato)
เมื่อ 13 ปีที่แล้ว
ค้นพบคอร์ด 17 เวอร์ชั่น
กล้าพอไหม - โปเตโต้ (Potato)
เมื่อ 2020 ปีที่แล้ว
ค้นพบคอร์ด 20 เวอร์ชั่น
เพียงพอ - โปเตโต้ (Potato)
เมื่อ 12 ปีที่แล้ว
ค้นพบคอร์ด 34 เวอร์ชั่น
ขอบคุณที่รักกัน(Acoustic) - โปเตโต้ (Potato)
เมื่อ 13 ปีที่แล้ว
ค้นพบคอร์ด 17 เวอร์ชั่น
นี่แหละความเสียใจ - โปเตโต้ (Potato)
เมื่อ 12 ปีที่แล้ว
ค้นพบคอร์ด 39 เวอร์ชั่น
ชีวิตที่ขาดเธอ - โปเตโต้(potato)
เมื่อ 12 ปีที่แล้ว
ค้นพบคอร์ด 10 เวอร์ชั่น
ฉันคิดถึงเธอ - โปเตโต้ (POTATO)
เมื่อ 8 ปีที่แล้ว
ค้นพบคอร์ด 1 เวอร์ชั่น
คำตอบของหัวใจ - โปเตโต้ (Potato)
เมื่อ 11 ปีที่แล้ว
ค้นพบคอร์ด 21 เวอร์ชั่น
ทนพิษบาดแผลไม่ไหว - โปเตโต้ (Potato)
เมื่อ 10 ปีที่แล้ว
ค้นพบคอร์ด 6 เวอร์ชั่น