คอร์ดเพลง คิดได้ยังไง - เสก โลโซ (Sek Loso)

Version 6
แกะโดย รุต สามเสน
เมื่อ 21 ก.ย.2549,00:20น.
ดู 459 ครั้ง
Tab Outro
1)-------------------------------------------------------------------------
2)----9--10---6~--5(6)(5)(6)(5)(6)--------------------------------
3)-7----------------------------------------------------------------------
4)-------------------------------------------------------------------------
5)-------------------------------------------------------------------------
6)-------------------------------------------------------------------------ต่อ

1)-------------------------------------------------------------------------
2)----9--10---6~--5(6)(5)(6)(5)(6)--------------------------------
3)-7----------------------------------------------------------------------
4)-------------------------------------------------------------------------
5)-------------------------------------------------------------------------
6)-------------------------------------------------------------------------

1)-------------------------------------------------------------------------
2)----9--10---6^--5^--------------------------------------------------
3)-7----------------------------------------------------------------------
4)-------------------------------------------------------------------------
5)-------------------------------------------------------------------------
6)-------------------------------------------------------------------------
เอาไปเลย
คอร์ดเพลง คิดได้ยังไง

ความคิดเห็นเกี่ยวกับคอร์ดนี้

เวอร์ชั่นทั้งหมดของคอร์ดเพลงนี้

คอร์ดเพลง คิดได้ยังไง

2 | 0
โดย biggy
เมื่อ 13 ปีที่แล้ว

คอร์ดเพลง คิดได้ยังไง

0 | 0
โดย OMAN
เมื่อ 6 ปีที่แล้ว

คอร์ดเพลง คิดได้ยังไง

0 | 0
โดย OMAN
เมื่อ 6 ปีที่แล้ว

คอร์ดเพลง คิดได้ยังไง

0 | 0
โดย OMAN
เมื่อ 6 ปีที่แล้ว

คอร์ดเพลง คิดได้ยังไง

0 | 0
โดย pods
เมื่อ 12 ปีที่แล้ว

คอร์ดเพลง คิดได้ยังไง

0 | 0
โดย pods
เมื่อ 12 ปีที่แล้ว

คอร์ดเพลง คิดได้ยังไง

0 | 0
โดย วงอนุชา (เคยเกือบจะเป็น) pods
เมื่อ 12 ปีที่แล้ว

คอร์ดเพลง คิดได้ยังไง

0 | 0
โดย โลโซ
เมื่อ 12 ปีที่แล้ว

คอร์ดเพลง คิดได้ยังไง

0 | 0
โดย gggggg
เมื่อ 12 ปีที่แล้ว

คอร์ดเพลง คิดได้ยังไง

0 | 0
โดย gypsykings
เมื่อ 12 ปีที่แล้ว

คอร์ดเพลง คิดได้ยังไง

0 | 0
โดย แหลม ราชสีมา
เมื่อ 12 ปีที่แล้ว

คอร์ดเพลง คิดได้ยังไง

0 | 0
โดย หกหกหกห
เมื่อ 12 ปีที่แล้ว

คอร์ดเพลง คิดได้ยังไง

0 | 0
โดย เต้ กีตาร์ไฟ
เมื่อ 12 ปีที่แล้ว

คอร์ดเพลง คิดได้ยังไง

0 | 0
โดย Guitar Master Brr Studen M6
เมื่อ 12 ปีที่แล้ว

คอร์ดเพลง คิดได้ยังไง

0 | 0
โดย นายเม
เมื่อ 12 ปีที่แล้ว

คอร์ดเพลง คิดได้ยังไง

0 | 0
โดย นายเม
เมื่อ 12 ปีที่แล้ว

คอร์ดเพลง คิดได้ยังไง

0 | 0
โดย รุต สามเสน
เมื่อ 13 ปีที่แล้ว

คอร์ดเพลง คิดได้ยังไง

0 | 0
โดย แป๊ป ตาแตรว
เมื่อ 13 ปีที่แล้ว

คอร์ดเพลง คิดได้ยังไง

0 | 0
โดย ศร jamadeck@hotmail.com
เมื่อ 13 ปีที่แล้ว

คอร์ดเพลง คิดได้ยังไง

0 | 0
โดย ศร jamadeck@hotmail.com
เมื่อ 13 ปีที่แล้ว

คอร์ดเพลง คิดได้ยังไง

0 | 0
โดย เต้ arsenal
เมื่อ 13 ปีที่แล้ว

เนื้อเพลง คิดได้ยังไง - เสก โลโซ (Sek Loso)

คิดได้ยังไง เสก โลโซ

Intro ??????????????

พอได้ยินข่าว ว่าเธอมีคนใหม่
ฉันแทบขาดใจ ไม่คิดว่าจะเป็นจริง
ให้เธอทุกอย่าง ได้ทุก ๆ สิ่ง
แต่แท้จริงไม่เคยได้ใจของเธอ

*แอบมีเขาซ่อนไว้ ที่ตรงภายในตลอด
กอดกับฉันแต่ไม่รู้ คิดถึงใคร

**ไม่เคยรู้จริง ๆ เธอไม่รักกันเลย
ไม่เคย แม้จะคิดระแวง
ไปกับใครคนอื่น ก็เจ็บช้ำรุนแรง
กับเขาคนที่เป็นเพื่อนฉัน เธอคิดได้ยังไง

ทั้งเขาและเธอ เป็นเหมือนหัวใจ
รักมากแค่ไหน เสียใจยิ่งมากกว่านั้น
คนที่ไว้ใจ ไม่น่าทำกัน
ซักวันจะรู้เมื่อเจอเข้าเอง

(ซ้ำ *,**)

solo ??????????????????????

(ซ้ำ **,**)

โอ้ เธอคิดได้อย่างไร เธอ เธอคิดได้ยังไง
โอ๊ย เธอคิดได้ยังไง

Cover เพลงคิดได้ยังไง


ยังไม่มี Cover เพลงนี้

[ ช่วยกันแบ่งปันคลิปเพลงที่คุณเล่นเอง ]

ฟังเพลง คิดได้ยังไง

แม่ - เสก โลโซ (Sek Loso)
เมื่อ 15 ปีที่แล้ว
ค้นพบคอร์ด 13 เวอร์ชั่น
แม้ว่า - เสก โลโซ (Sek Loso)
เมื่อ 14 ปีที่แล้ว
ค้นพบคอร์ด 12 เวอร์ชั่น
เจ็บหัวใจ - เสก โลโซ (Sek Loso)
เมื่อ 10 ปีที่แล้ว
ค้นพบคอร์ด 2 เวอร์ชั่น
นานเท่าไหร่ก็รอ - เสก โลโซ (Sek Loso)
เมื่อ 15 ปีที่แล้ว
ค้นพบคอร์ด 10 เวอร์ชั่น
ไม่ยอมตัดใจ - เสก โลโซ (Sek Loso)
เมื่อ 10 ปีที่แล้ว
ค้นพบคอร์ด 10 เวอร์ชั่น
ห่วงใย - เสก โลโซ (Sek Loso)
เมื่อ 7 ปีที่แล้ว
ค้นพบคอร์ด 2 เวอร์ชั่น
(ฉันคิดฯ)ฐานะอะไร - เสก โลโซ (Sek Loso)
เมื่อ 8 ปีที่แล้ว
ยังไม่มีคอร์ด
เสือร้องไห้ - เสก โลโซ (Sek Loso)
เมื่อ 8 ปีที่แล้ว
ค้นพบคอร์ด 5 เวอร์ชั่น
อยากได้ยินว่ารักกัน - เสก โลโซ (Sek Loso)
เมื่อ 9 ปีที่แล้ว
ค้นพบคอร์ด 1 เวอร์ชั่น
พันธ์ทิพย์ - เสก โลโซ (Sek Loso)
เมื่อ 15 ปีที่แล้ว
ค้นพบคอร์ด 3 เวอร์ชั่น
เพื่อเธอคนเดียว - เสก โลโซ (Sek Loso)
เมื่อ 10 ปีที่แล้ว
ค้นพบคอร์ด 2 เวอร์ชั่น
ไม่ใช่ฉันใช่ไหม Feat. ดา Endorphin - เสก โลโซ (Sek Loso)
เมื่อ 9 ปีที่แล้ว
ยังไม่มีคอร์ด
คุณรู้ไหมครับ - เบิร์ด-เสก โลโซ
เมื่อ 15 ปีที่แล้ว
ค้นพบคอร์ด 13 เวอร์ชั่น
เก็บดาวมาให้เธอ - เสก โลโซ (Sek Loso)
เมื่อ 10 ปีที่แล้ว
ค้นพบคอร์ด 7 เวอร์ชั่น
ขอบใจจริงๆ - เสก โลโซ (Sek Loso)
เมื่อ 15 ปีที่แล้ว
ค้นพบคอร์ด 5 เวอร์ชั่น
รับ (แฟนเธอ) ไม่ได้ - เสก โลโซ (Sek Loso)
เมื่อ 15 ปีที่แล้ว
ค้นพบคอร์ด 7 เวอร์ชั่น
ควบคุมหัวใจตัวเองไม่ได้ - เสก โลโซ (Sek Loso)
เมื่อ 8 ปีที่แล้ว
ค้นพบคอร์ด 4 เวอร์ชั่น
คิดได้ยังไง - เสก โลโซ (Sek Loso)
เมื่อ 13 ปีที่แล้ว
ค้นพบคอร์ด 22 เวอร์ชั่น
ทุกลมหายใจ - เสก โลโซ (Sek Loso)
เมื่อ 13 ปีที่แล้ว
ค้นพบคอร์ด 7 เวอร์ชั่น
เยอะ - เสก โลโซ (Sek Loso)
เมื่อ 7 ปีที่แล้ว
ค้นพบคอร์ด 2 เวอร์ชั่น

คอร์ดเพลงใหม่

21 | 1/0

กอดเสาเถียง - ปรีชา ปัดภัย

คอร์ดโดย สมัครฟรี ไม่เสียค่าใช้จ่าย
เมื่อ 20 ชั่วโมง
17 | 0/0

จีบสาวฉาวเทือน - เจนนี่ - ลิลลี่ ได้หมดถ้าสดชื่น Feat.วู้ดดี้

คอร์ดโดย สมัครฟรี ไม่เสียค่าใช้จ่าย
เมื่อ 21 ชั่วโมง
49 | 1/0

เจ็บหนักวิทยา - เบลล์ นิภาดา

คอร์ดโดย สมัครฟรี ไม่เสียค่าใช้จ่าย
เมื่อ 2 วันก่อน
58 | 0/0

ถ่าเจ้ากลับมา - ป๊อป นพรัตน์

คอร์ดโดย ศิริศักดิ์ ฝ่ายวงค์
เมื่อ 5 วันก่อน
140 | 0/0

Ver.2 มากกว่าฝูงหมา - กางเกง

คอร์ดโดย สไมล์ เดวิลล์ ปีศาจอารมณ์ดี
เมื่อ 8 วันก่อน
60 | 1/0

Ver.5 ล้า - อะเลิทร์(Alert)

คอร์ดโดย Naternet Bassist
เมื่อ 8 วันก่อน
103 | 0/0

Ver.2 ผีบ้าถามทาง - บิ๊กวัน กันทรลักษ์

คอร์ดโดย สไมล์ เดวิลล์ ปีศาจอารมณ์ดี
เมื่อ 8 วันก่อน