คอร์ดเพลง คิดได้ยังไง - เสก โลโซ (Sek Loso)

Version 7
แกะโดย นายเม
เมื่อ 2 ต.ค.2549,23:39น.
ดู 463 ครั้ง
มาแล้ว...มาแล้ว เมเม่มาแล้วคร๊าบ   
ลงให้แล้วนะ ....บ๊าบบาย ทุกคน

Key A

Intro:

1)--------------------------------------------------------------------------------------------------------------------------
2)------9^ค้าง>5----2-3-----55/7-------10/---------------------5/2------------------------------------------------
3)---------------------------------------------------2------44/6-------------4----67-----9^>-----76----------------
4)----------------------------------------------------------------------------------------------------------------9/2------
5)--------------------------------------------------------------------------------------------------------------------------
6)-------------------------------------------------------------------------------------------------------------------------

Solo :

1)----------------10------------------------10-------------------------
2)-----2/9-10---------10--10----79------9^>p7-9~-2 2------
3)-----------------------------------------------------------------------
4)-------------------------------------------------------------------------
5)-------------------------------------------------------------------------
6)-------------------------------------------------------------------------

1)-----------------10----------------/15-15--14-14---12-14^>p12---14-14---
2)-----2/9-10----------10--10--------------------------------------------------------
3)------------------------------------------------------------------------------------------
4)-----------------------------------------------------------------------------------------
5)-----------------------------------------------------------------------------------------
6)------------------------------------------------------------------------------------------

1)-------------------------------------------------2--------12----------------------------------------------------
2)----12^>p10---12-12----10-12^ค้าง------12^------12^>10-------12--------10-------------------
3)----------------------------------------------------------------------------11--------11-------11---11-11----
4)-------------------------------------------------------------------------------------------------------------------
5)-------------------------------------------------------------------------------------------------------------------
6)--------------------------------------------------------------------------------------------------------------------

1)--------------10/9-10p9-10p9------------------------------------------------------------------------
2)---------------------------------------11-11------11-/-15--15p14--15p14--15--15^----------
3)---11-11------------------------------------------------------------------------------------------------
4)------------------------------------------------------------------------------------------------------------
5)-------------------------------------------------------------------------------------------------------------
6)-------------------------------------------------------------------------------------------------------------

/ คือ การใช้นิ้วสไสด์สาย

p คือ การเล่นโดยใช้นิ้วดึงเสียงกลับ เช่น 10p9 คือใช้นิ้วกลางกดช่องที่10 แล้วจึงยกดึงสายให้เกิดเสียง
โน๊ตในช่องที่9 โดยที่ต้องกดสายช่องที่ 9ไว้ด้วย

^ คือ การดันสายขึ้นให้เกิดเสียงสูงขึ้น
> คือ การดันเสียงที่ดันขึ้นไปแล้วครั้งแรกดันลงมาเป็นเสียงเดิม


แกะเองเลย ผิดหรือเหมือนกะใครยังไงก็ขอโทษด้วยนะครับ เพราะชอบแบบตัวของตัวเองอะ

เวลาโซโล่ก็ใจเย็นๆกะกีต้าร์หน่อยนะ เวลาดันสายใส่ฟิวด้วยคร๊าบ แล้วตอนที่ดันขึ้นแล้วก็ดันลงมาเป็นพูลอ๊อฟเล่นให้ชัดๆ จะได้อารมณ์มากๆ
แกะตามแทปข้างบนแบบช้าๆนะครับ ค่อยๆฟัง แล้วค่อยๆดีดตามแทป เพราะมีบางช่วง เล่นเสียงที่ใช้
เทคนิกต่างๆ ขอให้ใจเย็นกับมัน อย่าเพิ่งเครียด ทำไปเรื่อยๆ แล้วก็จะได้เอง เมื่อได้มาแล้วก็......
สู้ๆ นะคับเพื่อนๆ ไปล่ะ
คอร์ดเพลง คิดได้ยังไง

ความคิดเห็นเกี่ยวกับคอร์ดนี้

เวอร์ชั่นทั้งหมดของคอร์ดเพลงนี้

คอร์ดเพลง คิดได้ยังไง

2 | 0
โดย biggy
เมื่อ 13 ปีที่แล้ว

คอร์ดเพลง คิดได้ยังไง

0 | 0
โดย OMAN
เมื่อ 6 ปีที่แล้ว

คอร์ดเพลง คิดได้ยังไง

0 | 0
โดย OMAN
เมื่อ 6 ปีที่แล้ว

คอร์ดเพลง คิดได้ยังไง

0 | 0
โดย OMAN
เมื่อ 6 ปีที่แล้ว

คอร์ดเพลง คิดได้ยังไง

0 | 0
โดย pods
เมื่อ 12 ปีที่แล้ว

คอร์ดเพลง คิดได้ยังไง

0 | 0
โดย pods
เมื่อ 12 ปีที่แล้ว

คอร์ดเพลง คิดได้ยังไง

0 | 0
โดย วงอนุชา (เคยเกือบจะเป็น) pods
เมื่อ 12 ปีที่แล้ว

คอร์ดเพลง คิดได้ยังไง

0 | 0
โดย โลโซ
เมื่อ 12 ปีที่แล้ว

คอร์ดเพลง คิดได้ยังไง

0 | 0
โดย gggggg
เมื่อ 12 ปีที่แล้ว

คอร์ดเพลง คิดได้ยังไง

0 | 0
โดย gypsykings
เมื่อ 12 ปีที่แล้ว

คอร์ดเพลง คิดได้ยังไง

0 | 0
โดย แหลม ราชสีมา
เมื่อ 12 ปีที่แล้ว

คอร์ดเพลง คิดได้ยังไง

0 | 0
โดย หกหกหกห
เมื่อ 12 ปีที่แล้ว

คอร์ดเพลง คิดได้ยังไง

0 | 0
โดย เต้ กีตาร์ไฟ
เมื่อ 12 ปีที่แล้ว

คอร์ดเพลง คิดได้ยังไง

0 | 0
โดย Guitar Master Brr Studen M6
เมื่อ 13 ปีที่แล้ว

คอร์ดเพลง คิดได้ยังไง

0 | 0
โดย นายเม
เมื่อ 13 ปีที่แล้ว

คอร์ดเพลง คิดได้ยังไง

0 | 0
โดย นายเม
เมื่อ 13 ปีที่แล้ว

คอร์ดเพลง คิดได้ยังไง

0 | 0
โดย รุต สามเสน
เมื่อ 13 ปีที่แล้ว

คอร์ดเพลง คิดได้ยังไง

0 | 0
โดย แป๊ป ตาแตรว
เมื่อ 13 ปีที่แล้ว

คอร์ดเพลง คิดได้ยังไง

0 | 0
โดย ศร jamadeck@hotmail.com
เมื่อ 13 ปีที่แล้ว

คอร์ดเพลง คิดได้ยังไง

0 | 0
โดย ศร jamadeck@hotmail.com
เมื่อ 13 ปีที่แล้ว

คอร์ดเพลง คิดได้ยังไง

0 | 0
โดย เต้ arsenal
เมื่อ 13 ปีที่แล้ว

เนื้อเพลง คิดได้ยังไง - เสก โลโซ (Sek Loso)

คิดได้ยังไง เสก โลโซ

Intro ??????????????

พอได้ยินข่าว ว่าเธอมีคนใหม่
ฉันแทบขาดใจ ไม่คิดว่าจะเป็นจริง
ให้เธอทุกอย่าง ได้ทุก ๆ สิ่ง
แต่แท้จริงไม่เคยได้ใจของเธอ

*แอบมีเขาซ่อนไว้ ที่ตรงภายในตลอด
กอดกับฉันแต่ไม่รู้ คิดถึงใคร

**ไม่เคยรู้จริง ๆ เธอไม่รักกันเลย
ไม่เคย แม้จะคิดระแวง
ไปกับใครคนอื่น ก็เจ็บช้ำรุนแรง
กับเขาคนที่เป็นเพื่อนฉัน เธอคิดได้ยังไง

ทั้งเขาและเธอ เป็นเหมือนหัวใจ
รักมากแค่ไหน เสียใจยิ่งมากกว่านั้น
คนที่ไว้ใจ ไม่น่าทำกัน
ซักวันจะรู้เมื่อเจอเข้าเอง

(ซ้ำ *,**)

solo ??????????????????????

(ซ้ำ **,**)

โอ้ เธอคิดได้อย่างไร เธอ เธอคิดได้ยังไง
โอ๊ย เธอคิดได้ยังไง

Cover เพลงคิดได้ยังไง


ยังไม่มี Cover เพลงนี้

[ ช่วยกันแบ่งปันคลิปเพลงที่คุณเล่นเอง ]

ฟังเพลง คิดได้ยังไง

แม่ - เสก โลโซ (Sek Loso)
เมื่อ 15 ปีที่แล้ว
ค้นพบคอร์ด 13 เวอร์ชั่น
แม้ว่า - เสก โลโซ (Sek Loso)
เมื่อ 14 ปีที่แล้ว
ค้นพบคอร์ด 12 เวอร์ชั่น
เจ็บหัวใจ - เสก โลโซ (Sek Loso)
เมื่อ 10 ปีที่แล้ว
ค้นพบคอร์ด 2 เวอร์ชั่น
นานเท่าไหร่ก็รอ - เสก โลโซ (Sek Loso)
เมื่อ 15 ปีที่แล้ว
ค้นพบคอร์ด 10 เวอร์ชั่น
ไม่ยอมตัดใจ - เสก โลโซ (Sek Loso)
เมื่อ 10 ปีที่แล้ว
ค้นพบคอร์ด 10 เวอร์ชั่น
ห่วงใย - เสก โลโซ (Sek Loso)
เมื่อ 7 ปีที่แล้ว
ค้นพบคอร์ด 2 เวอร์ชั่น
(ฉันคิดฯ)ฐานะอะไร - เสก โลโซ (Sek Loso)
เมื่อ 8 ปีที่แล้ว
ยังไม่มีคอร์ด
เสือร้องไห้ - เสก โลโซ (Sek Loso)
เมื่อ 8 ปีที่แล้ว
ค้นพบคอร์ด 5 เวอร์ชั่น
อยากได้ยินว่ารักกัน - เสก โลโซ (Sek Loso)
เมื่อ 9 ปีที่แล้ว
ค้นพบคอร์ด 1 เวอร์ชั่น
พันธ์ทิพย์ - เสก โลโซ (Sek Loso)
เมื่อ 15 ปีที่แล้ว
ค้นพบคอร์ด 3 เวอร์ชั่น
เพื่อเธอคนเดียว - เสก โลโซ (Sek Loso)
เมื่อ 10 ปีที่แล้ว
ค้นพบคอร์ด 2 เวอร์ชั่น
ไม่ใช่ฉันใช่ไหม Feat. ดา Endorphin - เสก โลโซ (Sek Loso)
เมื่อ 9 ปีที่แล้ว
ยังไม่มีคอร์ด
คุณรู้ไหมครับ - เบิร์ด-เสก โลโซ
เมื่อ 15 ปีที่แล้ว
ค้นพบคอร์ด 13 เวอร์ชั่น
เก็บดาวมาให้เธอ - เสก โลโซ (Sek Loso)
เมื่อ 10 ปีที่แล้ว
ค้นพบคอร์ด 7 เวอร์ชั่น
ขอบใจจริงๆ - เสก โลโซ (Sek Loso)
เมื่อ 15 ปีที่แล้ว
ค้นพบคอร์ด 5 เวอร์ชั่น
รับ (แฟนเธอ) ไม่ได้ - เสก โลโซ (Sek Loso)
เมื่อ 15 ปีที่แล้ว
ค้นพบคอร์ด 7 เวอร์ชั่น
ควบคุมหัวใจตัวเองไม่ได้ - เสก โลโซ (Sek Loso)
เมื่อ 8 ปีที่แล้ว
ค้นพบคอร์ด 4 เวอร์ชั่น
คิดได้ยังไง - เสก โลโซ (Sek Loso)
เมื่อ 13 ปีที่แล้ว
ค้นพบคอร์ด 22 เวอร์ชั่น
ทุกลมหายใจ - เสก โลโซ (Sek Loso)
เมื่อ 13 ปีที่แล้ว
ค้นพบคอร์ด 7 เวอร์ชั่น
เยอะ - เสก โลโซ (Sek Loso)
เมื่อ 7 ปีที่แล้ว
ค้นพบคอร์ด 2 เวอร์ชั่น