คอร์ดเพลง คิด - พาราด็อกซ์ (Paradox)

Version 2
แกะโดย Spidermonky
เมื่อ 25 ต.ค.2549,05:27น.
ดู 1065 ครั้ง
~ขยี้สาย /สไลด์
1|-------------------------------------------------------------------------------------------------------|
2|------------------------------6--3~--------------------3--------------------------------------------|
3|---4----4~-------4~---------------------------------------6~--------0--2-----------------------|
4|---5--5----5--7-----5-5-4--------4--5--7--4--4--2---------2--4--------2--4--0---4--------|
5|--------------------------------------------------------------------------------------------3----2~--|
6|--------------------------------------------------------------------------------------------------------|

1|-------------------------------------------------------------------------------------------------------------------|
2|---------------------------6~------------------------------------------------------------------------------------|
3|---5----4~--------4--5------5/7--5--4--5--2--4--0-0--5/7---5---4---5---5/7---5--3--5--7--5~-|
4|---4--5----5--7-------------------------------------------------------------------------------------------------|
5|-------------------------------------------------------------------------------------------------------------------|
6|-------------------------------------------------------------------------------------------------------------------|
คอร์ดเพลง คิด

ความคิดเห็นเกี่ยวกับคอร์ดนี้

เนื้อเพลง คิด - พาราด็อกซ์ (Paradox)



คิด
คำร้อง ทำนอง อิทธิพงศ์ กฤดากร ณ อยุธยา
เรียบเรียง Paradox

* ก็มัวแต่คิด ก็มัวแต่ฝัน ก็คงต้องพักก่อน มันไม่แน่นอน
อยากจะรู้ว่าเธออยู่ตรงนั้น น่ะเธออยู่ที่ฉัน หรืออยู่ที่ใคร?
ไม่อยากจะคิด ไม่อยากจะฝัน ก็คงต้องพักก่อน มันไม่แน่นอน
อยากจะคิดว่าเธอน่ะไม่ได้คิด ฉันจะได้ไม่ต้องคิด ให้เหนื่อยใจ
( อ่อนและล้าเมื่อเธออยู่ตรงนั้น ก็เธอทำให้ฉันเหนื่อยเหลือเกิน )

เธอยั่วยวนสายตาท่าทางเหมือนคนรักกัน หยอกเย้าให้ฉันเกิดความหวัง
อยู่อย่างนั้น ให้ค้างคาใจอย่างนี้
แต่บางที เธอก็ดู ไม่มีเยื่อใย เยือกเย็น
ปล่อยลอยแพในบ่อทุกข์ ปล่อยให้เราค้างเติ่ง ไม่เข้าใจ

( * solo )

*) ไม่อยากจะคิด ไม่อยากจะฝัน ก็คงต้องพักก่อน มันไม่แน่นอน
อยากจะรู้ว่าเธออยู่ตรงนั้น น่ะเธออยู่ที่ฉัน หรืออยู่ที่ใคร?
ก็มัวแต่คิด ก็มัวแต่ฝัน ก็คงต้องพักก่อน มันไม่แน่นอน
อยากจะคิดว่าเธอน่ะไม่ได้คิด ฉันจะได้ไม่ต้องคิด ให้เหนื่อยใจ

Cover เพลงคิด


ยังไม่มี Cover เพลงนี้

[ ช่วยกันแบ่งปันคลิปเพลงที่คุณเล่นเอง ]

ฟังเพลง คิด

ฤดูร้อน - พาราด็อกซ์ (Paradox)
เมื่อ 15 ปีที่แล้ว
ค้นพบคอร์ด 41 เวอร์ชั่น
เธอที่รัก(วัยอลวน4 ตั้ม โอ๋รีเทอนร์) - พาราด็อกซ์ (Paradox)
เมื่อ 14 ปีที่แล้ว
ค้นพบคอร์ด 20 เวอร์ชั่น
คนบนฟ้า - พาราด็อกซ์ (Paradox)
เมื่อ 8 ปีที่แล้ว
ค้นพบคอร์ด 4 เวอร์ชั่น
มีแต่เธอ - พาราด็อกซ์ (PARADOX)
เมื่อ 15 ปีที่แล้ว
ค้นพบคอร์ด 1 เวอร์ชั่น
Sexy (เซ็กซี่) - พาราด็อกซ์ (Paradox)
เมื่อ 16 ปีที่แล้ว
ค้นพบคอร์ด 10 เวอร์ชั่น
กอดฉันไว้ (Ost.สามชุก) - พาราด็อกซ์ (Paradox)
เมื่อ 10 ปีที่แล้ว
ค้นพบคอร์ด 1 เวอร์ชั่น
ดาว - พาราด็อกซ์ (PARADOX)
เมื่อ 15 ปีที่แล้ว
ค้นพบคอร์ด 17 เวอร์ชั่น
ใครสักคน - พาราด็อกซ์ (Paradox)
เมื่อ 12 ปีที่แล้ว
ค้นพบคอร์ด 11 เวอร์ชั่น
กรงทอง - พาราด็อกซ์ (Paradox)
เมื่อ 16 ปีที่แล้ว
ค้นพบคอร์ด 10 เวอร์ชั่น
จิ๊บ ร.ด. - พาราด็อกซ์ (Paradox)
เมื่อ 12 ปีที่แล้ว
ค้นพบคอร์ด 3 เวอร์ชั่น
ผงาดง้ำค้ำโลก - พาราด็อกซ์ (Paradox)
เมื่อ 13 ปีที่แล้ว
ค้นพบคอร์ด 13 เวอร์ชั่น
ทาส - พาราด็อกซ์ (Paradox)
เมื่อ 15 ปีที่แล้ว
ค้นพบคอร์ด 16 เวอร์ชั่น
นักมายากล - พาราด็อกซ์ (PARADOX)
เมื่อ 15 ปีที่แล้ว
ค้นพบคอร์ด 14 เวอร์ชั่น
เพ้อ - พาราด็อกซ์ (PARADOX)
เมื่อ 15 ปีที่แล้ว
ค้นพบคอร์ด 3 เวอร์ชั่น
LOVE - พาราด็อกซ์ (Paradox)
เมื่อ 15 ปีที่แล้ว
ค้นพบคอร์ด 9 เวอร์ชั่น
เป็นวัยรุ่นมันเหนื่อย - พาราด็อกซ์ (Paradox)
เมื่อ 14 ปีที่แล้ว
ค้นพบคอร์ด 6 เวอร์ชั่น
อยู่ในใจ - พาราด็อกซ์ (Paradox)
เมื่อ 15 ปีที่แล้ว
ค้นพบคอร์ด 3 เวอร์ชั่น
ขอ - พาราด็อกซ์ (Paradox)
เมื่อ 16 ปีที่แล้ว
ค้นพบคอร์ด 4 เวอร์ชั่น
3มิติ - พาราด็อกซ์ (Paradox)
เมื่อ 15 ปีที่แล้ว
ค้นพบคอร์ด 14 เวอร์ชั่น
ไก่ - พาราด็อกซ์ (PARADOX)
เมื่อ 15 ปีที่แล้ว
ค้นพบคอร์ด 6 เวอร์ชั่น