คอร์ดเพลง คุณรู้ไหมครับ - เบิร์ด-เสก โลโซ

Version 6
แกะโดย มือกีตาร์จาก สามเสน 2 วง Skarcityคับ
เมื่อ 13 มิ.ย.2547,18:18น.
ดู 697 ครั้ง
1)-----------------------------------------------------------------------------------------------------
2)-----------------------------------------------------------------------------------------------------
3)-----------------------------------------------------------------------------------------------------
4)--------------------7------------------------------------------------------------7/9-7-----------
5)-----------------7------7/9--9/7--------------------------7/9-7-----7/9--------------------
6)---5------7/9-----------------------9/7/5-7------7/9---------------------------------------


1)-----------------------------------------------------------------------------------------------------
2)-------------10------------------------------------------------------------------------------------
3)----------9-------9/11--11/9-------------------------------9/11-9--------------------------
4)---9/11--------------------------11/9/7-----9-----9/11---------------11*----------------
5)----------------------------------------------------------------------------------------------------
6)-----------------------------------------------------------------------------------------------------

ตรง 11* นี่คือดันสายนะครับแค่ 1/2 ก็พอ
ผมว่าน่าจะเล่นงี้นะคับ
คือ เพึ่งลองฟังอะเพราะดี
เลยแกะมาฝาก
((อัพเดทคอร์ดกีต้าร์))
คอร์ดเพลง คุณรู้ไหมครับ

ความคิดเห็นเกี่ยวกับคอร์ดนี้

เวอร์ชั่นทั้งหมดของคอร์ดเพลงนี้

คอร์ดเพลง คุณรู้ไหมครับ

30 | 4
โดย bEcKgAmE
เมื่อ 19 ปีที่แล้ว

คอร์ดเพลง คุณรู้ไหมครับ

2 | 0
โดย เด็กเถื่อน
เมื่อ 19 ปีที่แล้ว

คอร์ดเพลง คุณรู้ไหมครับ

0 | 0
โดย camp
เมื่อ 2 เดือนที่แล้ว

คอร์ดเพลง คุณรู้ไหมครับ

0 | 0
โดย AE!
เมื่อ 16 ปีที่แล้ว

คอร์ดเพลง คุณรู้ไหมครับ

0 | 0
โดย ต้นตาล
เมื่อ 16 ปีที่แล้ว

คอร์ดเพลง คุณรู้ไหมครับ

0 | 0
โดย aaaaaaa
เมื่อ 19 ปีที่แล้ว

คอร์ดเพลง คุณรู้ไหมครับ

0 | 0
โดย ต้อม พ.ช.
เมื่อ 19 ปีที่แล้ว

คอร์ดเพลง คุณรู้ไหมครับ

0 | 0
โดย ไก่
เมื่อ 19 ปีที่แล้ว

คอร์ดเพลง คุณรู้ไหมครับ

0 | 0
โดย pp
เมื่อ 19 ปีที่แล้ว

คอร์ดเพลง คุณรู้ไหมครับ

0 | 0
โดย มือกีตาร์จาก สามเสน 2 วง Skarcityคับ
เมื่อ 19 ปีที่แล้ว

คอร์ดเพลง คุณรู้ไหมครับ

0 | 0
โดย waisky
เมื่อ 19 ปีที่แล้ว

คอร์ดเพลง คุณรู้ไหมครับ

0 | 0
โดย Tae skumz
เมื่อ 19 ปีที่แล้ว

คอร์ดเพลง คุณรู้ไหมครับ

0 | 0
โดย bEcKgAmE
เมื่อ 19 ปีที่แล้ว

เนื้อเพลง คุณรู้ไหมครับ - เบิร์ด-เสก โลโซ


Intro: x2


เพียงแค่จ้องตา ใจก็สั่นไหว

คำที่พูดไป ใจบังคับมา



*อยากให้คุณได้รู้ไว้ ว่าข้อความที่ส่งไป

กลั่นมาจากใจ ฝากไปตามสายลม



**คุณจะรู้บ้างไหม คืนนี้ผมนอนไม่หลับ

คุณจะรู้ไหมครับ หน้าคุณลอยอยู่เต็มฟ้า
+7
อยากให้คุณโทรมาราตรีสวัสดิ์ พูดชัดๆ สักคำว่า รัก

แค่นี้คงไม่ลำบากเกินไป............ใช่ไหมคุณ



ดาวก็สวยดี ลมก็พัดเย็น

หญ้าที่ไหวเอน เป็นเช่นทุกวัน


(ซ้ำ *,**)

Solo: x2

(ซ้ำ *,**)



ใช่ไหมคุณ

ใช่ไหมคุณ

ได้ไหมคุณ


Outro: x4

Cover เพลงคุณรู้ไหมครับ


ยังไม่มี Cover เพลงนี้

[ ช่วยกันแบ่งปันคลิปเพลงที่คุณเล่นเอง ]

ฟังเพลง คุณรู้ไหมครับ