คอร์ดเพลง งี่เง่า - เอบีนอร์มอล (เอบี นอร์มอล (AB Normal)

Version 2
แกะโดย บีเตยงาม
เมื่อ 19 มี.ค.2549,22:13น.
ดู 1236 ครั้ง
ผมลงหั้ยแล้วนะที่บอกผมมาว่าคนที่แกะเพลงเจ้าหญิงของFahrenheitว่าไม่รู้เรื่องอ่ะผมจำชื่อไม่ด้ายวาน้องชื่อรัยอ่ะคับแต่ก้อไปแกะมาลงหั้ยแล้วนะ(พี่พึ่งจะมีเวลาแกะนะถึงพึ่งมาลงหั้ย)

1)----10---10-12----12-10---10-12----12-10---10-9---9-------------------------------------
2)-10---10--------10--------10--------10--------10------10--12-8-12-10--------------------
3)--------------------------------------------------------------------------------------------------------
4)--------------------------------------------------------------------------------------------------------
5)--------------------------------------------------------------------------------------------------------
6)--------------------------------------------------------------------------------------------------------

1)-----------------------------14-----14-15-14-15--------------------------------------------------
2)-----15---15-17-----17-----17-------------------15----------------------------------------------
3)-14----14--------14------------------------------------14-12-11---------------------------------
4)------------------------------------------------------------------------12-11-------------------------
5)--------------------------------------------------------------------------------12----------------------
6)---------------------------------------------------------------------------------------------------------

1)----10----10-12----12-10----10-12----12-9-----9----------------------------------------------
2)-10---10---------10--------10---------10-------11--------------------------------------12-15--
3)--------------------------------------------------------------9-7-6--------------------9-12-----------
4)----------------------------------------------------------------------9-8--------9-12-----------------
5)---------------------------------------------------------------------------9-10-------------------------
6)----------------------------------------------------------------------------------------------------------

1)-------17-15------------------------------------------------------------------------------------------
2)--17----------17-14-17-----------------------------------------------------------------------------
3)-----------------------------14-------------------------------------------------------------------------
4)--------------------------------------------------------------------------------------------------------
5)---------------------------------------------------------------------------------------------------------
6)--------------------------------------------------------------------------------------------------------

อย่าลืมนะเล่นตามเพลงมันจะด้ายไม่งง หรือเล่นช้าๆๆตามความสามารถเรา
คอร์ดเพลง งี่เง่า

ความคิดเห็นเกี่ยวกับคอร์ดนี้

เนื้อเพลง งี่เง่า - เอบีนอร์มอล (เอบี นอร์มอล (AB Normal)


Intro:




ก็ฉันมันเป็นแบบนี้แล้วไง



ก็ฉันมันไม่เคยเข้าใจอะไรที่เธอพูดมา



ไม่เหมาะกับเธอที่สูงเกินกว่า



ช่างล้ำค่า โอ้...นางฟ้า




และฉันก็ต้องเสียเธอไป



ก็ฉันมันไม่เคยเข้าใจอะไรที่เธอว่ามา



ไม่มองไม่แลไม่เห็นคุณค่า



สมน้ำหน้า โอ้...นางฟ้า




*แค่อยากจะเพียงขออีกสักครั้ง ขอให้คนงี่เง่าอย่างฉัน



ได้เริ่มใหม่ อีกสักครั้ง



ฉันมันแทบจะขาดใจ เมื่อขาดเธอไป



ใจฉันแค่เพียงจะบอกเธอ รักเธอหมดใจ




Oh baby just give me a chance tonight



ก็ขอแค่ให้ฉันได้เริ่มต้นใหม่ อะไรที่เธอพูดมา



ฉันยินดีจะรับฟังทุกอย่าง



ทุกๆอย่าง โอ้...นางฟ้า


*




รักเธอหมดใจ...









จะขออีกซักครั้ง จะเริ่มใหม่อีกซักครั้ง



แทบจะขาดใจ ใจฉัน แค่เพียง จะบอกเธอ



แค่จะขออีกซักครั้ง จะเริ่มใหม่อีกซักครั้ง



แทบจะขาดใจ (แทบจะขาดใจ)



ใจฉัน แค่เพียง จะบอกเธอ



รักเธอหมดใจ เย่..เฮ...เฮ่



ก็รักเธอหมดใจ (ก็รักเธอหมดใจ)



รักเธอหมดใจ เย่..เฮ...เฮ่

Cover เพลงงี่เง่า


ยังไม่มี Cover เพลงนี้

[ ช่วยกันแบ่งปันคลิปเพลงที่คุณเล่นเอง ]

ฟังเพลง งี่เง่า

พูดไม่ค่อยเก่ง - เอบีนอร์มอล (ABnormal)
เมื่อ 14 ปีที่แล้ว
ค้นพบคอร์ด 13 เวอร์ชั่น
ใจน้อย - เอบีนอร์มอล (ABnormal)
เมื่อ 15 ปีที่แล้ว
ค้นพบคอร์ด 49 เวอร์ชั่น
I?m Sorry - เอบีนอร์มอล (เอบี นอร์มอล (AB Normal)
เมื่อ 13 ปีที่แล้ว
ค้นพบคอร์ด 18 เวอร์ชั่น
แฟนฉัน - เอบีนอร์มอล (ABnormal)
เมื่อ 15 ปีที่แล้ว
ค้นพบคอร์ด 15 เวอร์ชั่น
ชายคนหนึ่ง - เอบีนอร์มอล (AB Normal)
เมื่อ 13 ปีที่แล้ว
ค้นพบคอร์ด 5 เวอร์ชั่น
ตัวประกอบ - เอบีนอร์มอล (ABnormal)
เมื่อ 14 ปีที่แล้ว
ค้นพบคอร์ด 8 เวอร์ชั่น
I am Sorry - เอบีนอร์มอล (เอบี นอร์มอล (AB Normal)
เมื่อ 13 ปีที่แล้ว
ค้นพบคอร์ด 10 เวอร์ชั่น
คนไม่ดีก็มีหัวใจ (เพลงประกอบละครคุณชายจำแลง) - เอบีนอร์มอล (ABnormal)
เมื่อ 14 ปีที่แล้ว
ค้นพบคอร์ด 18 เวอร์ชั่น
รักซะอย่าง - เอบีนอร์มอล (เอบี นอร์มอล (AB Normal)
เมื่อ 13 ปีที่แล้ว
ค้นพบคอร์ด 21 เวอร์ชั่น
เรารักกัน - เอบีนอร์มอล (ABnormal)
เมื่อ 15 ปีที่แล้ว
ค้นพบคอร์ด 10 เวอร์ชั่น
ฉันรักเธอ(คิดในใจ) - เอบีนอร์มอล (เอบี นอร์มอล (AB Normal)
เมื่อ 13 ปีที่แล้ว
ค้นพบคอร์ด 11 เวอร์ชั่น
ขอบใจที่พูดความจริง - เอบีนอร์มอล (ABnormal)
เมื่อ 14 ปีที่แล้ว
ค้นพบคอร์ด 5 เวอร์ชั่น
เด็กกว่าแล้วไง - เอบีนอร์มอล (ABnormal)
เมื่อ 15 ปีที่แล้ว
ค้นพบคอร์ด 7 เวอร์ชั่น
เกงในฉัน(ล้อเลียนแฟนฉัน) - เอบีนอร์มอล (ABnormal)
เมื่อ 14 ปีที่แล้ว
ค้นพบคอร์ด 4 เวอร์ชั่น
คำธรรมดา - เอบีนอร์มอล (ABnormal)
เมื่อ 15 ปีที่แล้ว
ค้นพบคอร์ด 8 เวอร์ชั่น
อย่าดีกว่า - เอบีนอร์มอล (ABnormal)
เมื่อ 14 ปีที่แล้ว
ค้นพบคอร์ด 2 เวอร์ชั่น
ต้องการใครบ้างไหม - เอบีนอร์มอล (เอบี นอร์มอล (AB Normal)
เมื่อ 13 ปีที่แล้ว
ค้นพบคอร์ด 4 เวอร์ชั่น
เมื่อวาน วันนี้ พรุ่งนี้ - เอบีนอร์มอล (เอบี นอร์มอล (AB Normal)
เมื่อ 13 ปีที่แล้ว
ค้นพบคอร์ด 5 เวอร์ชั่น
(ไม่)เจ้าชู้... - เอบีนอร์มอล (เอบี นอร์มอล (AB Normal)
เมื่อ 13 ปีที่แล้ว
ค้นพบคอร์ด 3 เวอร์ชั่น
เจ็บใจ - เอบีนอร์มอล (เอบี นอร์มอล (AB Normal)
เมื่อ 13 ปีที่แล้ว
ยังไม่มีคอร์ด