คอร์ดเพลง ง่ายเกินไป - หิน เหล็ก ไฟ

Version 4
แกะโดย ^^
เมื่อ 25 ก.พ.2549,10:00น.
ดู 3150 ครั้ง
1)-------6---5---3h5----------------------------------------------------
2)---3---------------------7-----7s9-----7----------------------------------
3)-------------------------------------------------6s8------6------------------------------

1)-----------6---5----3h5-------------------------------------------------------------------------
2)-------3-------------------------7-----------7--------------------------------------
3)---------------------------------------6s8-------6--------3--------------------------------------------4)---------------------------------------------------------------------5----------------------

1)-------6---5---3h5----------------------------------------------------
2)---3---------------------7-----7s9-----7----------------------------------
3)-------------------------------------------------6s8----6--------------------------------

1)--------------------------------------------------------------------------------------
2)-----------------------------------------------------------------------------------------
3)------------2--3----5---5s7----7----7s8h7-----------------------
4)----3s5-------------------------------------------------------------------------------------


มั้งครับ ลองดู ผมนึกจากที่เล่นเอาครับ ไม่ได้ลองไปด้วยนะ
ผิดก้อแก้ด้วยเน้อ~
คอร์ดเพลง ง่ายเกินไป

ความคิดเห็นเกี่ยวกับคอร์ดนี้

เวอร์ชั่นทั้งหมดของคอร์ดเพลงนี้

คอร์ดเพลง ง่ายเกินไป

3 | 0
โดย ลูกปลา
เมื่อ 14 ปีที่แล้ว

คอร์ดเพลง ง่ายเกินไป

2 | 0
โดย ^^
เมื่อ 13 ปีที่แล้ว

คอร์ดเพลง ง่ายเกินไป

0 | 0
โดย Guitar - Life
เมื่อ 13 ปีที่แล้ว

คอร์ดเพลง ง่ายเกินไป

0 | 0
โดย Guitar - Life k.n.w
เมื่อ 13 ปีที่แล้ว

คอร์ดเพลง ง่ายเกินไป

0 | 0
โดย อาฟง
เมื่อ 13 ปีที่แล้ว

คอร์ดเพลง ง่ายเกินไป

0 | 0
โดย อาฟง
เมื่อ 13 ปีที่แล้ว

คอร์ดเพลง ง่ายเกินไป

0 | 0
โดย อาฟ
เมื่อ 13 ปีที่แล้ว

คอร์ดเพลง ง่ายเกินไป

0 | 0
โดย อาฟง
เมื่อ 13 ปีที่แล้ว

คอร์ดเพลง ง่ายเกินไป

0 | 0
โดย อาฟง
เมื่อ 13 ปีที่แล้ว

คอร์ดเพลง ง่ายเกินไป

0 | 0
โดย j.cole]
เมื่อ 13 ปีที่แล้ว

คอร์ดเพลง ง่ายเกินไป

0 | 0
โดย ขนมปัง
เมื่อ 13 ปีที่แล้ว

คอร์ดเพลง ง่ายเกินไป

0 | 0
โดย THE เลย
เมื่อ 13 ปีที่แล้ว

คอร์ดเพลง ง่ายเกินไป

0 | 0
โดย THE เลย
เมื่อ 13 ปีที่แล้ว

เนื้อเพลง ง่ายเกินไป - หิน เหล็ก ไฟ

intro นะแกะเล่นๆหนุกๆ
12h12h

10

12h
12h13p12


ยังไม่ได้แกะโซโล่ แกะเดียวเอามาโพสคัยมีก็เอามาโพสได้นะช่วยๆกันเดียวแก้ให้

Cover เพลงง่ายเกินไป


ยังไม่มี Cover เพลงนี้

[ ช่วยกันแบ่งปันคลิปเพลงที่คุณเล่นเอง ]

ฟังเพลง ง่ายเกินไป

ศรัทธา - หิน เหล็ก ไฟ
เมื่อ 14 ปีที่แล้ว
ค้นพบคอร์ด 17 เวอร์ชั่น
หลงกล - หิน เหล็ก ไฟ
เมื่อ 15 ปีที่แล้ว
ค้นพบคอร์ด 10 เวอร์ชั่น
ง่ายเกินไป - หิน เหล็ก ไฟ
เมื่อ 14 ปีที่แล้ว
ค้นพบคอร์ด 13 เวอร์ชั่น
ยอม - หิน เหล็ก ไฟ
เมื่อ 13 ปีที่แล้ว
ค้นพบคอร์ด 18 เวอร์ชั่น
นางแมว - หิน เหล็ก ไฟ
เมื่อ 12 ปีที่แล้ว
ค้นพบคอร์ด 1 เวอร์ชั่น
สู้ - หิน เหล็ก ไฟ
เมื่อ 12 ปีที่แล้ว
ค้นพบคอร์ด 2 เวอร์ชั่น
ลมหายใจของกันและกัน - ลูกหิน
เมื่อ 15 ปีที่แล้ว
ยังไม่มีคอร์ด
เพื่อเธอ - หินเหล็กไฟ
เมื่อ 15 ปีที่แล้ว
ค้นพบคอร์ด 6 เวอร์ชั่น
เพื่อนกัน - หิน เหล็ก ไฟ
เมื่อ 11 ปีที่แล้ว
ค้นพบคอร์ด 1 เวอร์ชั่น
คงไม่ต้องบอก - หินกลิ้ง
เมื่อ 11 ปีที่แล้ว
ค้นพบคอร์ด 1 เวอร์ชั่น
หวาดระแวง - หิน เหล็ก ไฟ
เมื่อ 6 ปีที่แล้ว
ค้นพบคอร์ด 1 เวอร์ชั่น
สัญญา - หิน เหล็ก ไฟ
เมื่อ 14 ปีที่แล้ว
ค้นพบคอร์ด 2 เวอร์ชั่น
อภัย - หิน เหล็ก ไฟ
เมื่อ 13 ปีที่แล้ว
ค้นพบคอร์ด 3 เวอร์ชั่น
หมอนสองใบกับใจเหงาๆ - ลูกหิน
เมื่อ 14 ปีที่แล้ว
ค้นพบคอร์ด 2 เวอร์ชั่น
คิดไปเอง - หิน เหล็ก ไฟ
เมื่อ 6 ปีที่แล้ว
ค้นพบคอร์ด 1 เวอร์ชั่น
ทำดีที่สุดแล้ว - โป่ง หิน เหล็ก ไฟ
เมื่อ 4 ปีที่แล้ว
ค้นพบคอร์ด 5 เวอร์ชั่น
พลังรัก - หิน เหล็ก ไฟ
เมื่อ 6 ปีที่แล้ว
ค้นพบคอร์ด 1 เวอร์ชั่น
ไขว้เขว - หิน เหล็ก ไฟ
เมื่อ 6 ปีที่แล้ว
ค้นพบคอร์ด 1 เวอร์ชั่น
เจ็บบ้างก็ดี - หิน เหล็ก ไฟ
เมื่อ 6 ปีที่แล้ว
ค้นพบคอร์ด 1 เวอร์ชั่น
สิบปากว่า (หิน เหล็ก ไฟ) - หิน เหล็ก ไฟ
เมื่อ 6 ปีที่แล้ว
ค้นพบคอร์ด 1 เวอร์ชั่น