คอร์ดเพลง จินตนาการ - เอ็นโดรฟิน (Endorphine)

Version 2
แกะโดย ปริ้นซ์ Endor_spermbz
เมื่อ 22 ก.ย.2549,00:39น.
ดู 330 ครั้ง
Tab Solo

1---------------------------------------------------------------------------------
2-----------------------------------------------------------------------------
3---------------------------------------------------------------------------------
4--5-7-5-5-----------5-7-5-5--------------------------------------------------
5------------7-7-5-7-----------7-77-8-7-7-5-5----5-7-8-7-5------------
6-------------------------------------------------------8-------------------------


1----------------------------------------------------------------------------5h3
28-10-8-8----------8-10-8-8------5-6-5-5-----------5-6--5------------
3---------------9-9-7-9------------9-9-----------7-7-5-7---------75-----
4--------------------------------------------------------------------------------
5--------------------------------------------------------------------------------
6--------------------------------------------------------------------------------

เอาไปเล่นกันดูครับ
คอร์ดเพลง จินตนาการ

ความคิดเห็นเกี่ยวกับคอร์ดนี้

เนื้อเพลง จินตนาการ - เอ็นโดรฟิน (Endorphine)

ลองใช้จินตนาการ ถ้ามีความรักจะเป็นยังไง ดีไหมถ้าฝนโปรยปรายมีใครกางร่มให้กันไม่รู้เเล้วอิอิ

Cover เพลงจินตนาการ


ยังไม่มี Cover เพลงนี้

[ ช่วยกันแบ่งปันคลิปเพลงที่คุณเล่นเอง ]

ฟังเพลง จินตนาการ

สิ่งสำคัญ - เอ็นโดรฟิน (Endorphine)
เมื่อ 16 ปีที่แล้ว
ค้นพบคอร์ด 23 เวอร์ชั่น
น้ำเต็มแก้ว - เอ็นโดรฟิน (Endorphine)
เมื่อ 14 ปีที่แล้ว
ค้นพบคอร์ด 22 เวอร์ชั่น
อย่าทำให้ฟ้าผิดหวัง - เอ็นโดรฟิน (Endorphine)
เมื่อ 14 ปีที่แล้ว
ค้นพบคอร์ด 25 เวอร์ชั่น
เพื่อนสนิท - เอ็นโดรฟิน (Endorphine)
เมื่อ 15 ปีที่แล้ว
ค้นพบคอร์ด 3 เวอร์ชั่น
สิ่งสำคัญ - เอ็นโดรฟิน (Endorphine)
เมื่อ 15 ปีที่แล้ว
ค้นพบคอร์ด 10 เวอร์ชั่น
คืนข้ามปี - ดา เอ็นโดรฟิน (Endorphine)
เมื่อ 13 ปีที่แล้ว
ค้นพบคอร์ด 25 เวอร์ชั่น
ไม่รู้จักฉัน ไม่รู้จักเธอ - ป๊อบ แคลอลี่ บลา บลา & ดา เอ็นโดรฟิน
เมื่อ 12 ปีที่แล้ว
ค้นพบคอร์ด 14 เวอร์ชั่น
เมื่อเขามา ฉันจะไป - เอ็นโดรฟิน (Endorphine)
เมื่อ 14 ปีที่แล้ว
ค้นพบคอร์ด 21 เวอร์ชั่น
ภาพลวงตา - ดา เอ็นโดรฟิน (Endorphine)
เมื่อ 13 ปีที่แล้ว
ค้นพบคอร์ด 28 เวอร์ชั่น
ดูแลเขาให้ดีดี - เอ็นโดรฟิน (Endorphine)
เมื่อ 12 ปีที่แล้ว
ค้นพบคอร์ด 3 เวอร์ชั่น
ได้ยินไหม - ดา เอ็นโดรฟิน (Endorphine)
เมื่อ 12 ปีที่แล้ว
ค้นพบคอร์ด 20 เวอร์ชั่น
น่ารัก Ost.วัยอลวน - เอ็นโดรฟิน (Endorphine)
เมื่อ 14 ปีที่แล้ว
ค้นพบคอร์ด 13 เวอร์ชั่น
คำขอสุดท้าย - ดา เอ็นโดรฟิน (Endorphine)
เมื่อ 13 ปีที่แล้ว
ค้นพบคอร์ด 13 เวอร์ชั่น
ไม่ต้องรู้ว่าเราคบกันแบบไหน - เอ็นโดรฟิน (Endorphine)
เมื่อ 13 ปีที่แล้ว
ค้นพบคอร์ด 4 เวอร์ชั่น
ครั้งหนึ่งเราเคยรักกัน - ดา เอ็นโดรฟิน
เมื่อ 10 ปีที่แล้ว
ยังไม่มีคอร์ด
ดอกราตรี - เอ็นโดรฟิน (Endorphine)
เมื่อ 16 ปีที่แล้ว
ค้นพบคอร์ด 6 เวอร์ชั่น
เธอบอกให้ลืม - เอ็นโดรฟิน (Endorphine)
เมื่อ 15 ปีที่แล้ว
ค้นพบคอร์ด 3 เวอร์ชั่น
อยากได้ยินว่ารักกัน - ดา เอ็นโดรฟิน (Endorphine)
เมื่อ 10 ปีที่แล้ว
ค้นพบคอร์ด 2 เวอร์ชั่น
ที่เห็นและเป็นอยู่ - ดา เอ็นโดรฟิน (Endorphine)
เมื่อ 13 ปีที่แล้ว
ค้นพบคอร์ด 2 เวอร์ชั่น
เหมือนเดิมอยู่ไหม - เอ็นโดรฟิน (Endorphine)
เมื่อ 14 ปีที่แล้ว
ค้นพบคอร์ด 3 เวอร์ชั่น